Sex Pistols - God Save The Queen Chords & Tabs

 

God Save The Queen Chords & Tabs

Sex Pistols Chords & Tabs

Version: 1 Type: Tab 1 rating
1 star 2 stars 3 stars 4 stars 5 stars
comments

God Save The Queen Tab

   
Sex Pistols.
God save the Queen.
S = Slide
BU = Bend up
BD = Bend down
H = Hammer on
\ = Slide

Intro:
E---------------------------------------------------------------------------------------------------------------
B---------------------------------------------------------------------------------------------------------------
G---13---14---14---14----------14---14---14---------13---14---14---14---13---14---14---14---
D---13---14---14---14----------14---14---14-X2----13---14---14---14---13---14---14---14---
A---11---12---12---12----------12---12---12---------11---12---12---12---11---12---12---12---
E---------------------------------------------------------------------------------------------------------------
         S                                                                    S                           S                                              

-------------------------------------------------------
-------------------------------------------------------
---13---14---14---14----------------2---2---2--
---13---14---14---14----------------2---2---2--
---11---12---12---12----------------0---3---0--
-------------------------------------------------------
      S

Verse:
--------------------------------------------------------------------------------------------------------------
--------------------------------------------------------------------------------------------------------------
---2----------2-----2-------------2-----7----7----------7--------7------7-----6--------7-----2---2---
---2----------2-----2-------------2-----7----7----------7--------7------7-----7--------7-----2---2---X2
---0----------0-----0-------------0-----5----5----------5--------5------5-----4--------5-----0---0---
--------------------------------------------------------------------------------------------------------------


-------------------------------------------------------------------------------------------------------------
-------------------------------------------------------------------------------------------------------------
---6---------7------7------7-----------7------7------7------6------7------7------7------7---7---7--
---6---------7------7------7-----------7------7------7------6------7------7------7------7---5---7--
---4---------5------5------5-----------5------5------5------4------5------5------5------5--------5--
-------------------------------------------------------------------------------------------------------------
         S                                                                       S
Bridge:
--------------------------------------------------------------------------------------------------------
--------------------------------------------------------------------------------------------------------
---9------9----------------------------------------8-----9-----9-----9-----8-----9-----9-----9---
---9------9------9---------9------9------9------8-----9-----9-----9-----8-----9-----9-----9---X2
---7------7------9---------9------9------9------6-----7-----7-----7-----6-----7-----7-----7---
------------------7---------7------7------7----------------------------------------------------------
                                                                S                               S
------------------------------------------------------------------------
------------------------------------------------------------------------
------9-------9----------------9---------------9---------------9-----
------9-------9----------------9---------------9---------------9-----
------7-------7----------------7---------------7---------------7-----
------------------------------------------------------------------------




[ Tab from: http://www.guitartabs.cc/tabs/s/sex_pistols/god_save_the_queen_tab.html ]
Chorus:
---------------------------------------------------------------------------------------------------------------------
---------------------------------------------------------------------------------------------------------------------
----2----2----2----2---2---2---2-------2----2----7----7-----7---------7----6----7----7----7----2----2---
----2----2----2----2---2---2---4-------2----0----7----7-----7---------7----7----7----7----7----2----2---X2
----0----0----0----0---0---0---0-------0----0----5----5-----5---------5----4----5----5----5----0----0---
---------------------------------------------------------------------------------------------------------------------

----------------------------------------------------------------------------------------------------------------------------
----------------------------------------------------------------------------------------------------------------------------
------9-------9----9----9----9----9----2----2------2--------2----2----2----2----2----2--------2------------------
------9-------9----9----9----9----9----2----2------2--------2----2----2----2----2----2--------2---------5---(6)-X2
------7-------7----7----7----7----7----0----0------0--------0----0----0----0----0----0--------0------------------
-------------------------------------------------------------------------------------------------------------------3---(4)-
                                                                                                                                           BU
 Solo:                                                                                                   
---2---2----2----------2------2---2----------------------------------------------------------2-------2---2-----------------
---2---2----2----------2------2---2---0-----------------------------------------------------2-------2---2---0---2---0---
------------------4-(6)------------------0---4------4------6(7)(6)----4----6----4----0-----4(6)----------0---2---0--4
-----------------------------------------------4------4------6(7)(6)----4----6----4----0-----------------------------------
---------------------------------------------------------------------------------------------------------------------------------
---------------------------------------------------------------------------------------------------------------------------------
                      BU                                                BU BD                                 BU 
------------------------------------------------2---2---2---------------------------------------------------------------
------------------------------------------------2---2---2---0----------------------------------------------------------
---5---5---5---5---4---0---2-------4(6)-----------------0----------------------------------5-----4-----0------2-
---5---5---5---5---4---0-------------------------------------4---4------4---4------4------4-----4-----0---------
---4---4---4---4---4---0-------------------------------------4---4------4---4------4------4-----4-----0---------
--------------------------------------------------------------------------------------------------------------------------
                                               BU
---------------------------------------------12-----12---12------12-----12-----12-----------------12---------------12-
--------------2------2---4---2------0-----12-----12---12------12-----12-----12----12---------12---12---------12-
---4(6)-------------------------------------13-----13---13------13-----14-----13----13---14---------13---14-------
--------------------------------------------------------------------------------------------------------------------------------
--------------------------------------------------------------------------------------------------------------------------------
--------------------------------------------------------------------------------------------------------------------------------
                            H                                                                                     H                     H                    
-----------------12---------------------------------------------------------------------------
---12----------12---------------------------------------------------------------------------
---13---14-------------------------------------------------------------------------2--------
------------------------------14---------------------------------------\------------2--------
-------------------------------------------------------------------------------------0--------
-----------------------------------------------------------------------------------------------
       H


That’s it enjoy. 
Comments