Sex Pistols - Anarchy In The Uk Chords & Tabs

 

Anarchy In The Uk Chords & Tabs

Sex Pistols Chords & Tabs

Version: 2 Type: Tab 0 ratings
1 star 2 stars 3 stars 4 stars 5 stars
comments

Anarchy In The Uk Tab

Complete with no solo...Reapat song eight times.





e-----------------------------------------
B-----------------------------------------
G-12--------------------------------------
D-12-------Strum 8X-----------------------
A-10--------------------------------------
E-----------------------------------------


e-----------------------------------------
B-----------------------------------------
G-10--------------------------------------
D-10-----Strum 8X-------------------------
A-8---------------------------------------
E-----------------------------------------


e----------------------------------------
B----------------------------------------
G-9--------------------------------------
D-9----Strum 2X--------------------------
A-7--------------------------------------
E----------------------------------------


e----------------------------------------
B----------------------------------------
G-7--------------------------------------
D-7----Strum 2X--------------------------
A-5--------------------------------------
E----------------------------------------

[ Tab from: http://www.guitartabs.cc/tabs/s/sex_pistols/anarchy_in_the_uk_tab_ver_2.html ]
e----------------------------------------
B----------------------------------------
G-5--------------------------------------
D-5----Strum 24X--------------------------
A-3--------------------------------------
E----------------------------------------


e----------------------------------------
B----------------------------------------
G-5--------------------------------------
D-5----Strum 24X-------------------------
A-3--------------------------------------
E----------------------------------------


e----------------------------------------
B----------------------------------------
G----------------------------------------
D-5--------------------------------------
A-5----Strum 8X--------------------------
E-3--------------------------------------


e----------------------------------------
B----------------------------------------
G----------------------------------------
D-10-------------------------------------
A-10----Strum 13X------------------------
E-8--------------------------------------
 Mute ...........

e----------------------------------------
B----------------------------------------
G-10-------------------------------------
D-10----Strum 1X-------------------------
A-8--------------------------------------
E----------------------------------------


e----------------------------------------
B----------------------------------------
G-9--------------------------------------
D-9----Strum 1X--------------------------
A-7--------------------------------------
E----------------------------------------
Comments