Sewing With Nancie - Leave Today Chords & Tabs

 

Leave Today Chords & Tabs

Sewing With Nancie Chords & Tabs

Version: 2 Type: Tab 0 ratings
1 star 2 stars 3 stars 4 stars 5 stars
comments

Leave Today Tab

   
-------------------------------------------------------------------------------
			     Leave Today - Sewing With Nancie
-------------------------------------------------------------------------------
By:brock

this song is unreleased and is not on any of their albums but mite be on their upcoming one.
it's an awesome song so if u havent heard it download it.

legend:
*mute string
\slide

intro
riff a
e|---------------------------------------------------------------------------|
B|---------------------------------------------------------------------------|
G|--5-play that alot---bass is-----------------------------------------------|
D|--*------------------------------------------------------------------------|
A|--3--------------------------------3--------3------------------------------|
E|-------------------------------5-3---1--5-3---1----------------------------|

intro (cont'd)guitar 1 : after the bass plays the above part the second time play this
riff b
e|---------------------------------------------------------------------------|
B|---------------------------------------------------------------------------|
G|--5---7---9---7---5--------------------------------------------------------|
D|--*---*---*---*---*--------------------------------------------------------|
A|--3-\-5-\-7-\-5-\-3--------------------------------------------------------|
E|---------------------------------------------------------------------------|

intro (cont'd)guitar 2: then play this
riff c
e|---------------------------------------------------------------------------|
B|---------------------------------------------------------------------------|
G|------5--------------------------------------------------------------------|
D|--7-5-5-3------------------------------------------------------------------|
A|--7-5-3-3------------------------------------------------------------------|
E|--5-3---1------------------------------------------------------------------|
[ Tab from: http://www.guitartabs.cc/tabs/s/sewing_with_nancie/leave_today_tab_ver_2.html ]
verse: when adam sings "a new day...."
riff d
e|---------------------------------------------------------------------------|
B|---------------------------------------------------------------------------|
G|--5------------------------------------------------------------------------|
D|--5--3--7--5---------------------------------------------------------------|
A|--3--3--7--5---------------------------------------------------------------|
E|-----1--5--3---------------------------------------------------------------|

chorus: when adam sings "then it hit me..."
riff e
e|---------------------------------------------------------------------------|
B|---------------------------------------------------------------------------|
G|--7-----5------------------------------------------------------------------|
D|--7--3--5--5---------------------------------------------------------------|
A|--5--3--3--5---------------------------------------------------------------|
E|-----1-----3---------------------------------------------------------------|

then play intro only guitar 1-riff b

verse: only bass for 1st part when adam sings "i'm not so bored..." - riff f
e|---------------------------------------------------------------------------|
B|---------------------------------------------------------------------------|
G|---------------------------------------------------------------------------|
D|-----------then for second part -------------------------------------------|
A|--3--------when adam sings "filtered friends.."----------------------------|
E|----1-5-3--play riff d-----------------------------------------------------|

then chorus, extended chorus - riff e

then play guitar 1 - riff b and guitar 2 riff c

than the outro when adam sings "forget our hopes , lets leave today" play this
riff g
e|---------------------------------------------------------------------------|
B|---------------------------------------------------------------------------|
G|----5------------------------5---------------------------------------------|
D|--7-5-3-5--and end like this 5-3-------------------------------------------|
A|--7-3-3-5--------------------3-3-------------------------------------------|
E|--5---1-3----------------------1-------------------------------------------|

song order:

intro 		- riff a, b, then c
verse 		- riff d
chorus		- riff e
intro 		- riff b
verse 		- riff f
extended chorus - riff e
intro		- riff b, c
outro 		- riff g
Comments