Sewing With Nancie - Downsview Chords & Tabs

 

Downsview Chords & Tabs

Sewing With Nancie Chords & Tabs

Version: 1 Type: Tab 0 ratings
1 star 2 stars 3 stars 4 stars 5 stars
comments

Downsview Tab

-------------------------------------------------------------------------------
			     Downsview - Sewing With Nancie
-------------------------------------------------------------------------------

By: brock

Intro - 2 times acoustic than 4 more times with all instruments
e|---------------------------------------------------------------------------|
B|---------------------------------------------------------------------------|
G|-----------------------7-7-7-7-7-7-7-7-------------------------------------|
D|--4-4-4-4-4--7-7-7-7-7-7-7-7-7-5-5-5-5-------------------------------------|
A|--4-4-4-4-4--7-7-7-7-7-5-5-5-5-5-5-5-5-------------------------------------|
E|--2-2-2-2-2--5-5-5-5-5-----------------------------------------------------|

Verse - 4 times, than intro twice, than play verse 4 more times
e|---------------------------------------------------------------------------|
B|---------------------------------------------------------------------------|
G|---------------------------------------------------------------------------|
D|--4-4-4-4-4-4-4-4--7-7-7-7-7--6-6-6-6-6------------------------------------|
A|--4-4-4-4-4-4-4-4--7-7-7-7-7--6-6-6-6-6------------------------------------|
E|--2-2-2-2-2-2-2-2--5-5-5-5-5--4-4-4-4-4------------------------------------|
              

Chorus - 2 times, than goes into intro twice, than play verse 4 times with no 
palm muting
[ Tab from: http://www.guitartabs.cc/tabs/s/sewing_with_nancie/downsview_tab.html ]
e|---------------------------------------------------------------------------|
B|---------------------------------------------------------------------------|
G|-------------------7-7-7-7-7-7-7-7-------------------9-9-9-9-9-9-9-9-------|
D|--4-4-4-4-4-4-4-4--7-7-7-7-7-7-7-7--7-7-7-7-7-7-7-7--9-9-9-9-9-9-9-9-------|
A|--4-4-4-4-4-4-4-4--5-5-5-5-5-5-5-5--7-7-7-7-7-7-7-7--7-7-7-7-7-7-7-7-------|
E|--2-2-2-2-2-2-2-2-------------------5-5-5-5-5-5-5-5------------------------|

At the part when adam sings "another place another time" play this
e|---------------------------------------------------------------------------|
B|---------------------------------------------------------------------------|
G|--7-7-7-7-7-7-7-7----------------------------------------------------------|
D|--7-7-7-7-7-7-7-7--7-7-7-7-7-7-7-7--6-6-6-6-6-6-6-6------------------------|
A|--5-5-5-5-5-5-5-5--7-7-7-7-7-7-7-7--6-6-6-6-6-6-6-6------------------------|
E|-------------------5-5-5-5-5-5-5-5--4-4-4-4-4-4-4-4------------------------|

After that part is chorus again twice than this jump part 4 times :

e|---------------------------------------------------------------------------|
B|---------------------------------------------------------------------------|
G|-------------6--7-7-7-7-7--------------------------------------------------|
D|--7-7-7-7-7--6--7-7-7-7-7--------------------------------------------------|
A|--7-7-7-7-7--4--5-5-5-5-5--------------------------------------------------|
E|--5-5-5-5-5----------------------------------------------------------------|

than some solo stuff happens than "another place another time"

 part plays than the chorus again. then play the intro for the ending with singing.

Comments