Sevendust - Trust Chords & Tabs

 

Trust Chords & Tabs

Sevendust Chords & Tabs

Version: 1 Type: Tab 0 ratings
1 star 2 stars 3 stars 4 stars 5 stars
comments

Trust Tab

   
-------------------------------------------------------------------------------
			     Trust - Sevendust
-------------------------------------------------------------------------------
Tabbed by: SilentDeftone

Tuning: DADGBe (I am sure it's not dropped further because of the harmonic in the prechorus)

Intro:
e|-------------------------------------------|
B|-------------------------------------------|
G|o-----------------------------------------o|
D|o-3-3-3-7-8-7-8-7-8-5-3-3-3-6-8-6-8-4-6-3-o|
A|--3-3-3---------------3-3-3----------------|
D|--3-3-3---------------3-3-3----------------|
Repeat 4x, hold the F on the last time

-Verse-
During the verse there are some feedback-ish sounds, but no clear guitar.

1:27 - Prechorus, Palm muting
e|-----------------------------------------------|
B|-----------------------------------------------|
G|-----------------------------------------------|
D|-3-3-3-3-3---3-3-3-3-3---3-3-3-3-3---3-3-3-3-3-|
A|-3-3-3-3-3---3-3-3-3-3---3-3-3-3-3---3-3-3-3-3-|
D|-3-3-3-3-3---3-3-3-3-3---3-3-3-3-3---3-3-3-3-3-|

[ Tab from: http://www.guitartabs.cc/tabs/s/sevendust/trust_tab.html ]
e|----------------------------------------------------------------------|
B|----------------------------------------------------------------------|
G|-----------<4><4><4>-----------<4><4><4>-----------<4><4><4>----------|
D|-3-3-3-3-3-----------3-3-3-3-3-----------3-3-3-3-3-----------3-3-3----|
A|-3-3-3-3-3-----------3-3-3-3-3-----------3-3-3-3-3-----------3-3-3----|
D|-3-3-3-3-3-----------3-3-3-3-3-----------3-3-3-3-3-----------3-3-3-6\-|


1:37 - Chorus                         |-tremolo pick-|
e|----------------------------------------------------|
B|----------------------------------------------------|
G|-------------------------------------8---11--13--15-|
D|-11~-6~-11~-9/10~-8~b9r8-6~-8~-10-11-8---11--13--15-|
A|-11~-6~-11~-9/10~-8~b9r8-6~-8~-10-11----------------|
D|-11~-6~-11~-9/10~-8~b9r8-6~-8~-10-11----------------|

Go straight to intro at 2:03, then the verse.

2:34 - Heavy palm muting
e|-----------------------------------|
B|-----------------------------------|
G|o---------------------------------o|
D|o-3-3-3-3-4-4-4-4-1-1-1-1-3-3-3-3-o|
A|--3-3-3-3-4-4-4-4-1-1-1-1-3-3-3-3--|
D|--3-3-3-3-4-4-4-4-1-1-1-1-3-3-3-3--|
Play 2x

Play the Prechorus and Chorus, then silence.  At 3:51, play the Prechorus,
then repeat the chorus with minor variations until 4:54.  At 4:54, play a
variation of the prechorus out (rhythm is different).

Please rate this tab if you come across it.  Enjoy!
Comments