Sevendust - Suffocate Chords & Tabs

 

Suffocate Chords & Tabs

Sevendust Chords & Tabs

Version: 1 Type: Tab 0 ratings
1 star 2 stars 3 stars 4 stars 5 stars
comments

Suffocate Tab

   
Band- Sevendust
Song- Suffocate

Tuning: Drop A#  (A# F A# D G C)



INTRO
|-------------0------|
|-8-8-8-8-8-8-6------|
|--------------------|
|--------------------|
|--------------------|
|--------------------|



MAIN
|-------------------------------------------| Play this
|-------------------------------------------| sometimes
|-5h6p5-----------5h6p5---------------------|   4h5p4
|---------0-0---0---------0-0---0---0---0---|




VERSE
|---------------------------------|    |-------------------------------------|
|---------------------------------|    |-------------------------------------|
|-0---0-0---0-0---0-0---0-0---0-0-|    |-0---0-0---0-0---0-3br---0-3br---0-0-|  
  .   . .   . .   . .   . .   . .        .   . .   . .   .       .       . .



POWER VERSE
|-8-\-----------7-\-----------6-5-------|
|---------------------------------------|
|-6-\-----------5-\-----------4-3-------|
|------0-0----0------0-0----0-------0-0-|
       . .    .      . .    .       . .



CHORUS
|-13-13-13-13-13-13-13-13-13-13-13-10-10-10-12-12-|
|-------------------------------------------------|
|-10-10-10-10-10-10-10-10-10-10-10-7--7--7--9--9--|
|-------------------------------------------------|
|-------------------------------------------------|
|-------------------------------------------------|
|
|
|-------------------------------------------------|
|-8-----------------------------------------------|
|-8-----------------------------------------------|
|-8-----------------------------------------------|



|-12-12-12-12-12-12-12-12-12-12-12-12-12-12-12-12-|
|-------------------------------------------------|
|-9--9--9--9--9--9--9--9--9--9--9--9--9--9--9--9--|
|-------------------------------------------------|
|-------------------------------------------------|
|-------------------------------------------------|
|
|
|-------------------------------------------------|
|-0-----------------------------------------------|
|-0-----------------------------------------------|
|-0-----------------------------------------------|


[ Tab from: http://www.guitartabs.cc/tabs/s/sevendust/suffocate_tab.html ]
|-----------------------------------------------------------------------------|
|-----------------------------------------------------------------------------|
|-5-5-5-5-7-7-7-7-9-9-9-9-10-10-10-10-5/7-7-7-9-9-9-9-10-10-10-10-12-12-12-12-|
|-----------------------------------------------------------------------------|
|-3-3-3-3-5-5-5-5-7-7-7-7-8--8--8--8--3/5-5-5-7-7-7-7-8--8--8--8--10-10-10-10-|
|-----------------------------------------------------------------------------|
|
|
|-----------------------------------------------------------------------------|
|-7-----------------------------------5------------------------------10-10-10-|
|-7-----------------------------------5------------------------------10-10-10-|
|-7-----------------------------------5------------------------------10-10-10-|




MIDDLE
|-------------------0--------------------------0--------|
|-8--8--8--8--8--8--6--------8--8--8--8--8--8--6--------|
|-------------------------------------------------------|
|-------------------------------------------------------|
|-------------------------------------------------------|
|-------------------------------------------------------|
|
|
|-------------------------------------------------------|
|-------------------------------------------------------|
|----------------8--------------------------7-----------|
|-------10-------------------------10-------------------|
|----------------------------5p0------------------------|
|-------------------------------------------------------|
|
|
|-------------------------------------------------------|
|-------------------------------------------------------|
|-------------------------------------------------------|
|-0--0-----0-----0--0-----------------------------------|




(2:27 - Fade into a dream...)    (??????)
|-------------20-------------------------20--------------------------|
|---------20-------20---------------20-------20--------------20------|
|-19-------------------------19-----------------------19-------------|
|--------------------------------------------------------------------|
|--------------------------------------------------------------------|
|--------------------------------------------------------------------|
Comments