Sevendust - Skeleton Song Chords & Tabs

 

Skeleton Song Chords & Tabs

Sevendust Chords & Tabs

Version: 1 Type: Tab 0 ratings
1 star 2 stars 3 stars 4 stars 5 stars
comments

Skeleton Song Tab

Sevendust - Skeleton Song
Album: Seasons

Tabbed by: Tim Hogarth 


Drop D tuning - DADGBE  

Intro and Verse
E|--------------------------|---------------------------|
B|--------------------------|---------------------------|
G|-------------4----------4-|-------------4----------4--|
D|-----6-7-6-----7-6---6-7--|-----6-7-6-----7-6---6-7---|
A|---4-------4-------4------|---4-------4-------4-------|
D|-4------------------------|-0-------------------------|
[ Tab from: http://www.guitartabs.cc/tabs/s/sevendust/skeleton_song_tab.html ]
Chorus Repeat 4X
  And there's nothing wrong in being far from right...	
E|---------------------------------------------------|
B|---------------------------------------------------|
G|-6-6-6-6-6-6-6-6-6--2-2-2-2-2-2-2-2-2-2-4-4-6-6-6--|
D|-4-4-4-4-4-4-4-4-4--0-0-0-0-0-0-0-0-0-0-2-2-4-4-4--|
A|-4-4-4-4-4-4-4-4-4--0-0-0-0-0-0-0-0-0-0-2-2-4-4-4--|
D|-4-4-4-4-4-4-4-4-4--0-0-0-0-0-0-0-0-0-0-2-2-4-4-4--|

Bridge
     So I try my best to see, how you can relate to so much
E|--------------------------------------------------------|
B|--------------------------------------------------------|
G|-4---4-----------------2----2----2----------------------|
D|-4---4--0--0--0--0-----2----2----2-------2-----2----2---|
A|-2---2--0--0--0--0-----0----0----0-------2-----2----2---|
D|--------0--0--0--0-----------------------2-----2----2---|
  grief Everybody seems to be crying themselves to sleep 
E|-------------------------------------------------------|
B|-------------------------------------------------------|
G|-4---4--4-----------------2----2----2------------------|
D|-4---4--4--0--0--0--0-----2----2----2---2-----2----2---|
A|-2---2--2--0--0--0--0-----0----0----0---2-----2----2---|
D|-----------0--0--0--0-------------------2-----2----2---|
Comments