Sevendust - Separate Chords & Tabs

 

Separate Chords & Tabs

Sevendust Chords & Tabs

Version: 2 Type: Tab 0 ratings
1 star 2 stars 3 stars 4 stars 5 stars
comments

Separate Tab

   
Artist: Sevendust
Title: Separate
Album: Seasons
Tabbed By Erik Graham

Tuning b f# b g b e

Intro (Gtr 1)
E----------------------------------|----------------------------------
B----------------------------------|----------------------------------
G----------------------------------|----------------------------------
B--7-9-9-9-9-9-9-9-9-9-9-9-9-9-9-9-|-9-9-9-9-9-9-9-9-9-9-9-9-9-9-9-9--
F#---------------------------------|----------------------------------
B----------------------------------|----------------------------------


E----------------------------------|----------------------------------
B----------------------------------|----------------------------------
G----------------------------------|----------------------------------
B---7-9-9-9-10-9-7-7-9--7-9-7-9----|-9-9-9-9-9-9-9-9-9-9-9-9-7-9-7-9--
F#---------------------------------|----------------------------------
B----------------------------------|----------------------------------

Gtr 2 (Gt 1 keeps play what's above)

E-------------------------------------
B-------------------------------------
G-------------------------------------
B-------------------------------------
F#------------------------------------
B---7-9--7-9\---3~--7~----------------

Both Guitars
Intro 3
                         The little fill that Clint plays
E-----------------------|--------------           ---------------------
B-----------------------|--------------           ---------------------
G-----------------------|----6b-------- Full bend ---------------------
B-----------------------|--------------           ---------------------
F#--7-9--7-9\---3~--7~--|--------------           --3~--7~--7-9--7-9---
B---7-9--7-9\---3~--7~--|--------------           --3~--7~--7-9--7-9---
[ Tab from: http://www.guitartabs.cc/tabs/s/sevendust/separate_tab_ver_2.html ]
Verse: 
E-------------------------------------
B-------------------------------------
G-------------------------------------x2
B--9-9-9-9-9-9-9-9-9-9-9-9-9-9-9-9----
F#------------------------------------
B-------------------------------------

Chorus: 

E----------------------------------------------------------------------
B----------------------------------------------------------------------
G----------------------------------------------------------------------
B--4-4-4-4-4-4-4-4-2-2-2-2-2-2-2-2-------------------------------------
F#-2-2-2-2-2-2-2-2-0-0-0-0-0-0-0-0-5-5-5-5-5-5-5-5-0-0-0-0-0-0-0-0-----
B----------------------------------5-5-5-5-5-5-5-5-0-0-0-0-0-0-0-0-----

E-------------------------------
B-------------------------------
G-------------------------------
B-------------------------------
F#-2-2-2-2-2-2-2-2--------------
B--2-2-2-2-2-2-2-2--------------

E----------------------------------------------------------------------
B----------------------------------------------------------------------
G----------------------------------------------------------------------
B--4-4-4-4-4-4-4-4-2-2-2-2-2-2-2-2-6-6-6-6-6-6-6-6---------------------
f#-2-2-2-2-2-2-2-2-0-0-0-0-0-0-0-0-4-4-4-4-4-4-4-4-0-0-0-0-0-0-0-0-2-2-
B--------------------------------------------------0-0-0-0-0-0-0-0-2-2-

Verse
Chorus

Bridge:
E----------------------------
B----------------------------
G-----------6----------------X4
B---0-0-0-0-0----------------
F#---------------------------
B----------------------------

Then play intro 3 x4, then
E-------------------------------------
B-------------------------------------
G-------------------------------------
B-------------------------------------
F#--x-x-x-x-3~--0--7-9--7-9-----------
B---x-x-x-x-3~--0--7-9--7-9-----------

Then chorus
Then intro 2
Then intro 3
And finish on 

B--0-----------
F#-0-----------
B--0-----------

Awesome song!
Comments