Sevendust - Separate Chords & Tabs

 

Separate Chords & Tabs

Sevendust Chords & Tabs

Version: 1 Type: Tab 0 ratings
1 star 2 stars 3 stars 4 stars 5 stars
comments

Separate Tab

   
Band: Sevendust 
Song: Separate
Album: Seasons 

Tuning: Drop-D  
Transcribed by: Farzan Karimi  

                                    NOTE
                                    ----  
This file is the author's own work and represents their interpretation of the
song. You may only use this file for private study, scholarship, or research 
Copyright 2003.  Please give credit where it's due.  Any questions please
email me at sevendustpsu@aol.com  
				    ----


Of course we all know Sevendust plays with their crazy Drop-B flat and/or Drop-A
tuning... I tabbed this out for simple Drop-D, without sacrificing the right
octave/sound.  Simple Song but great to play loud!

**Pre-Intro: Guitar 1  (Lead) 
e|-------------------------------------------------------------------------| 
B|-------------------------------------------------------------------------| 
G|-------------------------------------------------------------------------| 
D|-------------------------------------------------------------------------| 
A|-9/11-11-11-11-11-11-11-11-11-11-11-11-11-11-11-11-11-11-11-11-11-11-11--| 
D|-------------------------------------------------------------------------| 
[ Tab from: http://www.guitartabs.cc/tabs/s/sevendust/separate_tab.html ]
e|------------------------------------------------------| 
B|------------------------------------------------------| 
G|------------------------------------------------------| 
D|------------------------------------------------------| 
A|-11-11-11-11-9/11-9/11-12-11-9-9/11-9/11-11-11-11-11--| 
D|------------------------------------------------------| 


Repeat 4x
**Pre-Intro: Guitar 2
Heavy Distortion 

e|--------------------| 
B|--------------------| 
G|--------------------| 
D|--------------------| 
A|--------------------| 
D|-4h6--4h6--1/4------| 



**Main Intro: Guitars 1 and 2
Heavy Distortion 
e|--------------------| 
B|--------------------| 
G|--------------------| 
D|-4h6--4h6--1/4------|          
A|-4h6--4h6--1/4------| 
D|-4h6--4h6--1/4------|

**Verse: Guitar 1 plays the first section while Guitar 2 plays the second (noted below)
All this is is quickly playing this note tremelo

e|----| 
B|----| 
G|----| 
D|----|   followed by the Main Intro part once  (listen to the cd) 
A|-11-| 
D|----| 



**Chorus: Guitars 1 and 2
Heavy Distortion (strumming pattern not shown, listen to song for rhythm)

"Can you Separate..."
e|--------------------------------------| 
B|--------------------------------------| 
G|----------6-------4-------------------| 
D|--6-------4-------x------2----0-------| 
A|--6-------4-------2------2----0-------| 
D|--6-------4--------------2----0-------| 


**Lead-in to Breakdown: Guitar 1
Heavy Distortion
(*) are for harmonics

e|--------------------------------------| 
B|--------------------------------------| 
G|---------------0(*)--------------0(*)-| 
D|---8-8-8-9-9-9-------8-8-8-9-9-9------|  then into Main Intro Riff
A|--------------------------------------|          (Guitars 1 and 2)
D|--------------------------------------|
Comments