Sevendust - Schools Out Chords & Tabs

 

Schools Out Chords & Tabs

Sevendust Chords & Tabs

Version: 1 Type: Tab 0 ratings
1 star 2 stars 3 stars 4 stars 5 stars
comments

Schools Out Tab

   
          Author/Artist: sevendust 
          Title: schools out (cover) 
          Transcribed by:Johnny B 
          
          
          tunning-(B,F#,B,E,G#,C) 
          
          ------------------------------------------------------------------------------ 
          ------------------------------------------------------------------------------ 
          ------------------------------------------------------------------------------ 
          -xx5--xx3--xx5-3-11-xx5--xx3--xx5-3-11---------------------------------------- 
          -xx5--xx3--xx5-3-11-xx5--xx3--xx5-3-11---------------------------------------- 
          -xx5--xx3--xx5-3-11-xx5--xx3--xx5-3-11---------------------------------------- 
           1ST guitar-Intro-X2- they`re 1`s not 11`s                                     
          
          ------------------------------------------------------------------------------ 
          ------------------------------------------------------------------------------ 
          ------------------------------------------------------------------------------ 
          --------------------------------------0--------------------------------------- 
          --------------------------------------0--------------------------------------- 
          --------------------------------------0--------------------------------------- 
           2ND guitar-Intro-X1 just one simple strum                                     
          
          ------------------------------------------------------------------------------ 
          ------------------------------------------------------------------------------ 
          ------------------------------------------------------------------------------ 
          -xx5--xx3--xx5-3-11----------------------------------------------------------- 
          -xx5--xx3--xx5-3-11----------------------------------------------------------- 
          -xx5--xx3--xx5-3-11----------------------------------------------------------- 
           1ST guitar-Main bit-X4                                                        
          
          ------------------------------------------------------------------------------ 
          ------------------------------------------------------------------------------ 
          ------------------------------------------------------------------------------ 
          ------------------------------------------------------------------------------ 
          ------------------------------------------------------------------------------ 
          -xx5--xx3--xx5-3-11----------------------------------------------------------- 
           2ND guitar-Main bit-X4- i think there`s slight bends there.                   
          
          ------------------------------------------------------------------------------ 
          ------------------------------------------------------------------------------ 
          ------------------------------------------------------------------------------ 
          ------------------------------------------------------------------------------ 
          -xx--xx--xx5-3-11------------------------------------------------------------- 
          -xx--xx--xx5-3-11------------------------------------------------------------- 
           both guitars-3Rd riff-X4                                                      
          
          ------------------------------------------------------------------------------ 
          ------------------------------------------------------------------------------ 
          ------------------------------------------------------------------------------ 
          -3-333-3-3333-5-555-5-5555---------------------------------------------------- 
          -3-333-3-3333-5-555-5-5555---------------------------------------------------- 
          -3-333-3-3333-5-555-5-5555---------------------------------------------------- 
           1ST guitar-opening chorus-X1                                                  
          
          ------------------------------------------------------------------------------ 
          ------------------------------------------------------------------------------ 
          ------------------------------------------------------------------------------ 
          -5-555-5-5555-7-777-7-7777---------------------------------------------------- 
          -3-333-3-3333-5-555-5-5555---------------------------------------------------- 
          ------------------------------------------------------------------------------ 
           2ND guitar-opening chorus-X1                                                  
          
          ------------------------------------------------------------------------------ 
          ------------------------------------------------------------------------------ 
          ------------------------------------------------------------------------------ 
          -1010101010101010-131313138888------------------------------------------------ 
          -8-8-8-8-8-8-8-8--111111116666------------------------------------------------ 
          ------------------------------------------------------------------------------ 
           1ST guitar-chorus-X2                                                          
          
          ------------------------------------------------------------------------------ 
          ------------------------------------------------------------------------------ 
          ------------------------------------------------------------------------------ 
          ------------------------------1-3-1-3-1-3-1-3-xxx----------------------------- 
          ------------------------------1-3-1-3-1-3-1-3-xxx----------------------------- 
          ------------------------------1-3-1-3-1-3-1-3-xxx----------------------------- 
           2ND guitar-chorus-X2                                                          
          
          ------------------------------------------------------------------------------ 
          ------------------------------------------------------------------------------ 
          ------------------------------------------------------------------------------ 
          -5----5----1------------------------------------------------------------------ 
          -5----5----1------------------------------------------------------------------ 
          -5----5----1------------------------------------------------------------------ 
           1ST guitar-end chorus                                                         
          
          ------------------------------------------------------------------------------ 
          ------------------------------------------------------------------------------ 
          ------------------------------------------------------------------------------ 
          -10---10---6------------------------------------------------------------------ 
          -8----8----4------------------------------------------------------------------ 
          ------------------------------------------------------------------------------ 
           2ND guitar-end chorus- the next riff is the one i dont know                   
          
          ------------------------------------------------------------------------------ 
          -3-3--7-3-3--6-2-2--6-2-2--5-------------------------------------------------- 
          ------------------------------------------------------------------------------ 
          ------------------------------------------------------------------------------ 
          ------------------------------------------------------------------------------ 
          ------------------------------------------------------------------------------ 
           1ST guitar only-End Riff
[ Tab from: http://www.guitartabs.cc/tabs/s/sevendust/schools_out_tab.html ]
Comments