Sevendust - Reconnect Chords & Tabs

 

Reconnect Chords & Tabs

Sevendust Chords & Tabs

Version: 1 Type: Tab 0 ratings
1 star 2 stars 3 stars 4 stars 5 stars
comments

Reconnect Tab

   
"Reconnect" by Sevendust. 
Album, Home
The tuning for this song is a half step down from standard, plus drop D.
There's 2 guitar parts in some sections so pick the one you want or mix them
together.



Intro:
Eb------------------------------|----------------------
Bb------------------------------|---------------2/b----
Gb------------------------------|---------------2/b----
Db---------------------------(3x)----------------------
Ab-0-2-2-2----0-2-2-0-3-3-3-----|-0-2-2-2-0-2----------
Db-0-2-2-2----0-2-2-0-3-3-3-----|-0-2-2-2-0-2----------
 p.m.- - - - - - - - - - - |      p.m.- - - - -|

Verse:
Eb-------------------------------|--------------------------------
Bb-------------------------------|--------------------------------
Gb-------------------------------|--------------------------------
Db----------------------------(4x)---------\3/-\3/----------------(4x)
Ab--0-2-2-2----0-2-2-0-3-3-3-----|-0-2-2-2----------0-2-2-0-3-3-3-
Db--0-2-2-2----0-2-2-0-3-3-3-----|-0-2-2-2----------0-2-2-0-3-3-3-
 p.m. - - - - - - - - - - - -|   p.m. - -|         p.m. - - - - -|

Eb-------------------------------|-------------------------------
Bb-------------------------------|-------------------------------
Gb----------7-7-7-7-7-7--7-7-7-7-|----------7-9-9-9-9-9--9-7-7-7-(2x)
Db-------------------------------|-------------------------------
Ab-0-2-2-0--5-5-5-5-5-5--5-5-5-5-|-0-2-2-0--5-7-7-7-7-7--7-5-5-5-
Db-0-2-2-0-----------------------|-0-2-2-0-----------------------
 p.m. - - -|                     p.m. - - -|

Repeat Intro

Second Verse: Repeat Verse 1. 

Pre-Chorus: (light distortion)
Eb--------------|-----------
Bb--------------|-----------
Gb--------------|-----------
Db--------------|----------- (2x)
Ab--------------|-----------
Db--2--0--8--5--|--2--0--8--

Chorus: 
Guitar 1 (play whole section  2x)
Eb----------------------------------
Bb----------------------------------
Gb--4-4-4-4-4-4-4-4-4-4-4-4-4-4-4-4-
Db----------------------------------
Ab--2-2-2-2-2-2-2-2-2-2-2-2-2-2-2-2-
Eb----------------------------------

Eb---------------------------------
Bb---------------------------------
Gb---------------------------------
Db---------------------------------
Ab--------------------------------- 
Eb-0-0-0-0-0-0-0-0-0-0-0-0-0-0-0-0-
 p.m.- - - - - - - - - - - - - - -|
                                   
Eb----------------------------------
Bb----------------------------------
Gb-10-10-10-10-10-10-10-10-10-10-10-
Db----------------------------------
Ab--8-8-8-8-8-8-8-8-8-8-8-8-8-8-8-8- 
Db----------------------------------

Eb---------------------------------
Bb---------------------------------
Gb--------------------------------- 
Db---------------------------------
Ab--------------------------------- 
Db-5-5-5-5-5-5-5-5-5-5-5-5-5-5-5-5- 
 p.m. - - - - - - - - - - - - - - |   

Guitar 2 (play whole section 2x)
Eb---------------------------------|---------------------------------
Bb---------------------------------|---------------------------------
Gb-9-9-9-9-9-9-9-9-9-9-9-9-9-9-9-9-|-7-7-7-7-7-7-7-7-7-7-7-7-7-7-7-7-
Db---------------------------------|---------------------------------
Ab-7-7-7-7-7-7-7-7-7-7-7-7-7-7-7-7-|-5-5-5-5-5-5-5-5-5-5-5-5-5-5-5-5- 
Db---------------------------------|---------------------------------

Eb----------------------------------
Bb----------------------------------
Gb-10-10-10-10-10-10-10-10-10-10-10-
Db----------------------------------    
Ab--8-8-8-8-8-8-8-8-8-8-8-8-8-8-8-8-
Db----------------------------------
[ Tab from: http://www.guitartabs.cc/tabs/s/sevendust/reconnect_tab.html ]
Eb----------------------------------------------
Bb----------------------------------------------
Gb-12-12-12-12-12-12-12-12-12-12-12-14-14-14-14- 
Db----------------------------------------------    
Ab-10-10-10-10-10-10-10-10-10-10-10-12-12-12-12-
Db----------------------------------------------




Eb-----------------
Bb-----------------
Gb--4--4--3--3--4--
Db--2--2--2--2--2-- (2x)
Ab--2--2--2--2--2--
Db--2--2--2--2--2--

Third Verse: Same as the other verses.

Pre-Chorus: (heavy distortion)
Guitar 1
Eb----------------------------------
Bb----------------------------------
Gb---7--7--7--7--7-7--7--7-7-----0-let ring
Db---5--7--5--7--7-7--7--5-7--8----- 
Ab---------------------------------- (2x)
Db----------------------------8-----

Guitar 2
Eb-----------------------------
Bb-----------------------------
Gb-----------------------7-----
Db--2--0--8--5--|--2--0--0-----  (2x)
Ab--2--0--8--5--|--2--0--------
Db--2--0--8--5--|--2--0--8-----

Play Chorus.

Outro:
Guitar 1
Eb-0-0-0-0-0-0-0-0-0-0-0-0-0-0-0-0--
Bb-5-5-5-5-5-5-5-5-5-5-5-5-5-5-5-5--
Gb---------------------------------- (2x)
Db----------------------------------
Ab----------------------------------
Db----------------------------------
  "I need a day_______..."

Eb-0-0-0-0-0-0-0-0-0-0-0-0-0-0-0-0-
Bb-3-3-3-3-3-3-3-3-3-3-3-3-3-3-3-3-
Gb---------------------------------
Db---------------------------------
Ab---------------------------------
Db---------------------------------

Eb-0-0-0-0-0-0-0-0-0-0-0-0-0-0-0-0----
Bb-5-5-5-5-5-5-5-5-5-5-5-5-5-5-5-5----
Gb------------------------------------  (3x)
Db------------------------------------
Ab------------------------------------
Db------------------------------------

Eb-0-0-0-0----0-0-0-0----0-0-------
Bb-3-3-3-3----3-3-3-3----3-3-------
Gb---------------------------------
Db---------------------------------
Ab---------------------------------
Db---------------------------------

Guitar 2
Eb-----------------------------------
Bb-----------------------------------
Gb-9-9-9-9-9-9-9-9-9-9-9-9-9-9-9-9---
Db----------------------------------- (2x)
Ab-7-7-7-7-7-7-7-7-7-7-7-7-7-7-7-7---
Db-----------------------------------

Eb-----------------------------------
Bb-----------------------------------
Gb-10-10-10-10-10-10-10-10-10-10-10--
Db----------------------------------- (2x)
Ab-8-8-8-8-8-8-8-8-8-8-8-8-8-8-8-8---
Db-----------------------------------

Eb-----------------------------------
Bb-----------------------------------
Gb-9-9-9-9-9-9-9-9-9-9-9-9-9-9-9-9---
Db----------------------------------- (2x)
Ab-7-7-7-7-7-7-7-7-7-7-7-7-7-7-7-7---
Db-----------------------------------

Eb--------------------------------------
Bb--------------------------------------
Gb-10-10-10-10----10-10-10-10----10-10--
Db--------------------------------------
Ab--8--8--8--8----8--8--8--8-----8--8---
Db--------------------------------------


Outro Cont'd...
Guitar 1 (play pattern 2x)
Eb---------------------------|----------------------------
Bb---------------------------|----------------------------
Gb--4-4-4-4----4-4-4-4---4-4-|--7-7-7-7----7-7-7-7----7-7-
Db---------------------------|----------------------------
Ab--2-2-2-2----2-2-2-2---2-2-|--5-5-5-5----5-5-5-5----5-5-
Db---------------------------|----------------------------
   "Save me..."

Eb---------------------------------|---------------------------------
Bb---------------------------------|---------------------------------
Gb-10-10-10-10--10-10-10-10--10-10-|-10-10-10-10--10-10-10-10--10-10-
Db---------------------------------|---------------------------------
Ab-8--8--8--8---8--8--8--8----8--8-|-8--8--8--8---8--8--8--8----8--8-
Db---------------------------------|---------------------------------

Guiatr 2
Eb-----------------------------
Bb-----------------------------
Gb----------------------------- (8x)
Db--2-2-2-2----2-2-2-2----2-2--
Ab--2-2-2-2----2-2-2-2----2-2--
Db--2-2-2-2----2-2-2-2----2-2--
Comments