Sevendust - Praise Chords & Tabs

 

Praise Chords & Tabs

Sevendust Chords & Tabs

Version: 7 Type: Tab 0 ratings
1 star 2 stars 3 stars 4 stars 5 stars
comments

Praise Tab

   
ARTIST: Sevendust
ALBUM: Animosity
SONG: Praise
TABBED: Steven B.
TUNING: (B,F#,B,E,G#,C#)


INTRO
B  :-------------------------------------------------------------------------|
F#:--------------------------------------------------------------------------|
B  :-------------------------------------------------------------------------|
E  :--------------------3---------------3-----------------3------------------|
G#:--------------------------------------------------------------------------|
C#:--0--2--2--2----------2---------------2--2--2--------2--------------------|
[ Tab from: http://www.guitartabs.cc/tabs/s/sevendust/praise_tab_ver_7.html ]
B  :-------------------------------------------------------------------------|
F#:--------------------------------------------------------------------------|
B  :-------------------------------------------------------------------------|
E  :---3------------------------3---------3----------------------------------|
G#:-------------------------------------------------------2------------------|
C#:----------2--2--2--2-----------2-----------2-------2----0-2-0-2-----------|

B  :-------------------------------------------------------------------------|
F#:--------------------------------------------------------------------------|
B  :-------------------------------------------------------------------------|
E  :--------------------3---------------3-----------------3------------------|
G#:--------------------------------------------------------------------------|
C#:--0--2--2--2----------2---------------2--2--2--------2--------------------|

B  :-------------------------------------------------------------------------|
F#:--------------------------------------------------------------------------|
B  :-------------------------------------------------------------------------|
E  :--3-----------------3-----------3----------------------------------------|
G#:--------------------------------------------------------------------------|
C#:-------2--2--2----------2--------------2------2---------------------------|

WELL THAT COVERS THE INTRO... ENJOY
Comments