Sevendust - Praise Chords & Tabs

 

Praise Chords & Tabs

Sevendust Chords & Tabs

Version: 5 Type: Tab 0 ratings
1 star 2 stars 3 stars 4 stars 5 stars
comments

Praise Tab

   
Praise-Sevendust
Animosity

Drop B
B F# B E G# C#


C#----------------------------------------------------------------
G#----------------------------------------------------------------
E-----------------------------------------------------------------
B---------------3---3-----------3---3-----------3---3-------------
F#-------------------------------------------------------2--------
B---0-2---2---2---2---2---2---2---2---2---2---2---2---2--2-0-2-0-2
                                                           pm
                                                       
C#----------------------------------------------------------------
G#----------------------------------------------------------------
E-----------------------------------------------------------------
B---------------3---3-----------3---3-----------3---3-------------
F#--0-2-----------------------------------------------------------
B---0-2---2---2---2---2---2---2---2---2---2---2---2---2---2-------

fig 1.

C#----------------------------------------------------------------
G#----------------------------------------------------------------
E-----------------------------------------------------------------
B---------------3---3-----------3---3-----------3---3-------------
F#--0-2---2---2-x-2-x-2---2---2-x-2-x-2---2---2-x-2-x-2--2-0-2-0-2
B---0-2---2---2-3-2-3-2---2---2-3-2-3-2---2---2-3-2-3-2--2-0-2-0-2
                                                         pm
verse 1

C#----------------------------------------------------------------
G#----------------------------------------------------------------
E-----------------------------------------------------------------
B---------------3---3-----------3---3-----------3---3-------------
F#----------------------------------------------------------------
B---0-2---2---2---2---2---2---2---2---2---2---2---2---2--2-0-2-0-2

C#----------------------------------------------------------------
G#----------------------------------------------------------------
E-----------------------------------------------------------------
B---------------3---3-----------3---3-----------3---3-------------
F#----------------------------------------------------------------
B---0-2---2---2---2---2---2---2---2---2---2---2---2---2---2-------
2nd and 3rd verse

C#----------------------------------------------------------------
G#----------------------------------------------------------------
E--------------10--10----------10--10----------10--10-------------
B-----------------------------------------------------------------
F#--------------8---8-----------8---8-----------8---8------0-2-0-2
B---0-2---2---2---2---2---2---2---2---2---2---2---2---2--2-0-2-0-2
[ Tab from: http://www.guitartabs.cc/tabs/s/sevendust/praise_tab_ver_5.html ]
pre chorus
gtr 3 w/ chorus and delay x2
C#----------------------------------------------------------------
G#----------------------------------------------------------------
E-------------------9----10-7-----------------------9-9-9-9-9-9-9-
B-------------------x-----x-x-----------------------x-x-x-x-x-x-x-
F#------------------7-----8-5-----------------------7-7-7-7-7-7-7-
B-----------------------------------------------------------------
gtr 2
C#----------------------------------------------------------------
G#----------------------------------------------------------------
E-----------------------------------------------------------------
B-------------------8-8-8-8-------------------------8-8-8-8-8-8-8-
F#--2-2-2-0-0-2-2-0-7-7-7-7-8-8-8-8-2-2-2-0-0-2-2-0-7-7-7-7-7-7-7-
B---2-2-2-0-0-2-2-0---------8-8-8-8-2-2-2-0-0-2-2-0---------------

C#----------------------------------------------------------------
G#----------------------------------------------------------------
E-----------------------------------------------------------------
B-------------------8-8-8-8-------------------------8-8-8-8-8-8-8-
F#--2-2-2-0-0-2-2-0-7-7-7-7-8-8-8-8-2-2-2-0-0-2-2-0-7-7-7-7-7-7-7-
B---2-2-2-0-0-2-2-0-8-8-8-8-8-8-8-8-2-2-2-0-0-2-2-0-8-8-8-8-8-8-8-

chorus x2 fig 3
C#----------------------------------------------------------------
G#----------------------------------------------------------------
E---------------------------9-9-7-9-------------------------------
B---2-2-2-2-2-2-2-2-0-0-0-0-x-x-x-x-8-8-8-8-8-8-8-8-12121212121212
F#--2-2-2-2-2-2-2-2-0-0-0-0-7-7-5-7-8-8-8-8-8-8-8-8-10101010101010
B---2-2-2-2-2-2-2-2-0-0-0-0---------8-8-8-8-8-8-8-8-10101010101010
after chorus
C#----------------------------------------------------------------
G#------------------------------------------5-5-6-6-6-6-5-5-------
E-------------------7<<<<<<<<<<<<<<<<<<<<<<-----------------------
B-----------------------------------------------------------------
F#----------------------------------------------------------------
B-----------------------------------------------------------------
chorus before interlude fig 3 w.

C#--12-12-10-10-12-10-12-10-12-12-10-10-12-12-13-13---------------
G#----------------------------------------------------------------
E-----------------------------------------------------------------
B-----------------------------------------------------------------
F#----------------------------------------------------------------
B----------------------------------------------------------------

C#----------------------------------------------------------------
G#----------------------------------------------------------------
E-----------------------------------------------------------------
B-----------------------------------------------------------------
F#--2-2-2-0-0-2-2-0-----------------------------------------------
B---2-2-2-0-0-2-2-0-----------------------------------------------

interlude:
                                          first ending:
C#----------------------------------------------------------------
G#---------------------------------------------------15----15---15
E---13---------13----14----14-------16----13----------------------
B---12---------------12----12-------------12------------12----12--
F#--11------11----11----12-------14----14-11------11--------------
B-----------------------------------------------------------------
second ending

C#----------------------------------------------------------------
G#----------------------------------------------------------------
E---14\13-13----13/14----14/16----16----16----16------------------
B---------12------------------------------------------------------
F#--12\11----11-------12-------14----14----14----14---------------
B-----------------------------------------------------0-2--2------

outro chorus.: fig 3

C#----------------------------------------------------------------
G#----------------------------------------------------------------
E---1313131313131313-14141414-9-9-5-9-9-910101010-7-7-9-9-9-9-9-9-
B-----------------------------------------------------------------
F#--1111111111111111-12121212-7-7-5-7-7-7-8-8-8-8-5-5-7-7-7-7-7-7-
B-----------------------------------------------------------------

that?s all
trevor jones
timmy91199@yahoo.ca

Comments