Sevendust - Praise Chords & Tabs

 

Praise Chords & Tabs

Sevendust Chords & Tabs

Version: 4 Type: Tab 0 ratings
1 star 2 stars 3 stars 4 stars 5 stars
comments

Praise Tab

   
Hi, this is exactly how to play it.
It is played in B F# B E G# C#.

Intro and 1st part of verse where Lajon is singing. 
C#|--------------------------------------------------
G#---------------------------------------------------
E|-----------------------------------------------------
B|-----------3---3---------3---3---------3---3----------
F#|-----------------------------------------------2-----
B|--0-2-2-2----2---2--2--2---2---2--2-2---2---2-2-2-0-2-0-2-

                   Intro continued 

C#|-----------------------------------------------------
G#|-----------------------------------------------------
E|----------------------------------------------------
B|------------3---3-------3---3-------3---3-------------
F#|-0-2------------------------------------------------
B|--0-2--2--2---2---2-2-2---2---2-2-2---2---2-0-2---------


Intro and 2nd part of chorus where Morgan yells "Praise!" 

C#|------------------------------------------------------
G#|-------------------------------------------------------
E|------------------------------------------------------
B|------------3---3---------3---3-------3---3------
F#|--0-2-2-2--x-2-x-2-2--2--x-2-x-2-2-2-x-2-x-2-2-0-2-0-2-
B|---0-2-2-2--3-2-3-2-2--2--3-2-3-2-2-2-3-2-3-2-2-0-2-0-2


                    Pre- chorus
[ Tab from: http://www.guitartabs.cc/tabs/s/sevendust/praise_tab_ver_4.html ]
C#|----------------------------------------
G#|--------------------------------------------
E|---------------------------------------------
B|-----------------8-8-8-8-8-8------X4-----------------
F#|-2-2-2-0-0-2-2--7-7-7-8-8-8------X4----------------
B|--2-2-2-0-0-2-2--8-8-8-8-8-8------X4-----------------


                      Chorus

C#|-------------------------------------------------
G#|-----------------------------------------------------
E|----------------------------9-7-9---------------------
B|---2-2-2-2-2-2-2-2-0-0-0-0--X-X-X--8-8-8-8-8-8-8-8-----
F#|--2-2-2-2-2-2-2-2-0-0-0-0--7-5-7--8-8-8-8-8-8-8-8------
B|---2-2-2-2-2-2-2-2-0-0-0-0---------8-8-8-8-8-8-8-8-------


                 Chorus Continued

C#|------------------------------------------
G#|----------------------------------------------
E|-----------------------------------------------
B|--12-12-12-12-12-12-12-12---X2--------------------------
F#|-10-10-10-10-10-10-10-10---X2-------------------
B|--10-10-10-10-10-10-10-10---X2---------------------


  BRIDGE  SAME AS SECOND PART OF VERSE                 



                   INTERLUDE
GTR.1
C#|--------------------------------------------
G#|---------------------------------------------
E|--13-8-STRUMS-14-4-STRUMS-9-7-9-10-8-STRUMS-7-9-8-STRUMS--
B|--XX----------XX----------X-X-X-XX----------X-X-------
F#|-11----------12----------7-5-7- 8----------5-7---
B|---------------------------------------- 


GTR.2
C#|--------------------------------------------
G#|-----------------------------------------------
E|----------------------------------------------
B|-------SAME AS CHORUS-------------------------------------
F#|---------------------------------------------
B|----------------------------------------------


OUTRO SAME AS SECOND PART OF VERSE OR BRIDGE


This tab is exactly right. Sent by luc.
Comments