Sevendust - Praise Chords & Tabs

 

Praise Chords & Tabs

Sevendust Chords & Tabs

Version: 10 Type: Tab 0 ratings
1 star 2 stars 3 stars 4 stars 5 stars
comments

Praise Tab

   
 ____________________________________________________________
|                                                            |
|                         "PRAISE"                           |
|____________________________________________________________|

Artist: Sevendust
Album: "Animosity"
Tuning: B F# B E G# C#
Timing: 4/4
Tempo/Meter: *134
Arranged & tweaked by corrupted_angel_X

This tab of "Praise" is taken from the official transcription. I have simply
arranged it for one guitar and tweaked certain areas to make up for the lack
of a second and third guitar as used in the recorded version. This is a damn
cool version to play if you are the only guitarist in your band. Feel free to
keep it in drop D tuning for convenience; the tone won't be as deep though. As
always, listen to the track for timing.

Intro
|-----------------------------------------------------------
|-----------------------------------------------------------
|-----------------------------------------------------------
|-----------3---3---------3---3---------3---3---------------
|------------------------------------------------2----------
|-0-2--2--2---2---2--2--2---2---2--2--2---2---2--2-0-2-0-2--
                                                   PM.....

|---------------------------------------------------
|---------------------------------------------------
|---------------------------------------------------
|-----------3---3---------3---3---------3---3-------
|---------------------------------------------------
|-0-2--2--2---2---2--2--2---2---2--2--2---2---2--2--

x2
|-----------------------------------------------------------
|-----------------------------------------------------------
|-----------------------------------------------------------
|-0-2--2--2-3-2-3-2--2--2-3-2-3-2--2--2-3-2-3-2--2-0-2-0-2--
|-0-2--2--2-3-2-3-2--2--2-3-2-3-2--2--2-3-2-3-2--2-0-2-0-2--
|-0-2--2--2-3-2-3-2--2--2-3-2-3-2--2--2-3-2-3-2--2-0-2-0-2--
                                                   PM.....

Verse 1
|-----------------------------------------------------------
|-----------------------------------------------------------
|-----------------------------------------------------------
|-----------3---3---------3---3---------3---3---------------
|------------------------------------------------2----------
|-0-2--2--2---2---2--2--2---2---2--2--2---2---2--2-0-2-0-2--
                                                   PM.....

|---------------------------------------------------
|---------------------------------------------------
|---------------------------------------------------
|-----------3---3---------3---3---------3---3-------
|---------------------------------------------------
|-0h2--2--2---2---2--2--2---2---2--2--2---2---2--2--

x2
|-----------------------------------------------------------
|-----------------------------------------------------------
|-----------------------------------------------------------
|-0-2--2--2-3-2-3-2--2--2-3-2-3-2--2--2-3-2-3-2--2-0-2-0-2--
|-0-2--2--2-3-2-3-2--2--2-3-2-3-2--2--2-3-2-3-2--2-0-2-0-2--
|-0-2--2--2-3-2-3-2--2--2-3-2-3-2--2--2-3-2-3-2--2-0-2-0-2--
                                                   PM.....

Pre-Chorus
|----------------------------------------------------------
|----------------------------------------------------------
|------------------9---10-7-------------------9---9-9-9-9--
|---------------------------------------------8---8-8-8-8--
|-2-2-2-0-0-2-2-0--7---8--5--2-2-2-0-0-2-2-0--7---7-7-7-7--
|-2-2-2-0-0-2-2-0------------2-2-2-0-0-2-2-0--8---8-8-8-8--
  PM.............            PM.............

|--------------------------------------------------------------
|--------------------------------------------------------------
|------------------9---10-7-------------------9-9-9-9-9-9-9-9--
|---------------------------------------------8-8-8-8-8-8-8-8--
|-2-2-2-0-0-2-2-0--7---8--5--2-2-2-0-0-2-2-0--7-7-7-7-7-7-7-7--
|-2-2-2-0-0-2-2-0------------2-2-2-0-0-2-2-0--8-8-8-8-8-8-8-8--
  PM.............            PM.............
[ Tab from: http://www.guitartabs.cc/tabs/s/sevendust/praise_tab_ver_10.html ]
Chorus x2
|--------------------------------------------------------------------------
|--------------------------------------------------------------------------
|-------------------------9-9-7-9------------------------------------------
|-2-2-2-2-2-2-2-2-0-0-0-0---------8-8-8-8-8-8-8-8-12-12-12-12-12-12-12-12--
|-2-2-2-2-2-2-2-2-0-0-0-0-7-7-5-7-8-8-8-8-8-8-8-8-10-10-10-10-10-10-10-10--
|-2-2-2-2-2-2-2-2-0-0-0-0---------8-8-8-8-8-8-8-8-10-10-10-10-10-10-10-10--

|---------------------------------------------------
|---------------------------------------------------
|---------------------------------------------------
|------------------------------------------------2--
|------------------------------------------------2--
|-0-2--2--2-3-2-3-2--2--2-3-2-3-2--2--2-3-2-3-2--2--
  PM...........................................

Verse 2 x2
|-----------------------------------------------------------
|-----------------------------------------------------------
|-----------------------------------------------------------
|-0-2--2--2-3-2-3-2--2--2-3-2-3-2--2--2-3-2-3-2--2-0-2-0-2--
|-0-2--2--2-3-2-3-2--2--2-3-2-3-2--2--2-3-2-3-2--2-0-2-0-2--
|-0-2--2--2-3-2-3-2--2--2-3-2-3-2--2--2-3-2-3-2--2-0-2-0-2--
                                                   PM.....

Pre-Chorus
|----------------------------------------------------------
|----------------------------------------------------------
|------------------9---10-7-------------------9---9-9-9-9--
|---------------------------------------------8---8-8-8-8--
|-2-2-2-0-0-2-2-0--7---8--5--2-2-2-0-0-2-2-0--7---7-7-7-7--
|-2-2-2-0-0-2-2-0------------2-2-2-0-0-2-2-0--8---8-8-8-8--
  PM.............            PM.............

|--------------------------------------------------------------
|--------------------------------------------------------------
|------------------9---10-7-------------------9-9-9-9-9-9-9-9--
|---------------------------------------------8-8-8-8-8-8-8-8--
|-2-2-2-0-0-2-2-0--7---8--5--2-2-2-0-0-2-2-0--7-7-7-7-7-7-7-7--
|-2-2-2-0-0-2-2-0------------2-2-2-0-0-2-2-0--8-8-8-8-8-8-8-8--
  PM.............            PM.............

Chorus x4
|--------------------------------------------------------------------------
|--------------------------------------------------------------------------
|-------------------------9-9-7-9------------------------------------------
|-2-2-2-2-2-2-2-2-0-0-0-0---------8-8-8-8-8-8-8-8-12-12-12-12-12-12-12-12--
|-2-2-2-2-2-2-2-2-0-0-0-0-7-7-5-7-8-8-8-8-8-8-8-8-10-10-10-10-10-10-10-10--
|-2-2-2-2-2-2-2-2-0-0-0-0---------8-8-8-8-8-8-8-8-10-10-10-10-10-10-10-10--

|----------------------
|----------------------
|----------------------
|---------------0------
|-2-2-2-0-0-2-2-0------
|-2-2-2-0-0-2-2-0------

Interlude
|------------------------------------------------------------
|-----------------------------------------15--15--15--------
|-13------13--14--14------16------13------------------------
|-------------------------------------------12--12----------
|-11----11--11--12------14--14----11----11--------------11--
|-----------------------------------------------------------

|-----------------------------------------------------------
|-----------------------------------------15--15--15--------
|-13------13--14--14------16------13------------------------
|-------------------------------------------12--12----------
|-11----11--11--12------14--14----11----11--------------11--
|-----------------------------------------------------------

|-----------------------------------------------------------
|-----------------------------------------------------------
|-----------------------------------------------------------
|-----------3---3---------3---3---------3---3---------------
|------------------------------------------------2----------
|-0-2--2--2---2---2--2--2---2---2--2--2---2---2--2-0-2-0-2--
                                                   PM.....

|-----------
|-----------
|-----------
|-----------
|-----------
|-0h2--2----

Chorus x4
|--------------------------------------------------------------------------
|--------------------------------------------------------------------------
|-------------------------9-9-7-9------------------------------------------
|-2-2-2-2-2-2-2-2-0-0-0-0---------8-8-8-8-8-8-8-8-12-12-12-12-12-12-12-12--
|-2-2-2-2-2-2-2-2-0-0-0-0-7-7-5-7-8-8-8-8-8-8-8-8-10-10-10-10-10-10-10-10--
|-2-2-2-2-2-2-2-2-0-0-0-0---------8-8-8-8-8-8-8-8-10-10-10-10-10-10-10-10--

Outro
|----------------------------------------------------
|----------------------------------------------------
|----------------------------------------------------
|-----------3---3---------3---3---------3---3---0-2--
|-----------------------------------------------0-2--
|-0-2--2--2---2---2--2--2---2---2--2--2---2---2-0-2--
Comments