Sevendust - Praise Chords & Tabs

 

Praise Chords & Tabs

Sevendust Chords & Tabs

Version: 1 Type: Tab 0 ratings
1 star 2 stars 3 stars 4 stars 5 stars
comments

Praise Tab

User: TyLeR gUNZ
Song: "praise" sevendust
E-mail: GunZz007@aol.com

 If you have any damn questions, jus e-mail me....

|---------------------------------------------|-----------------------
|---------------------------------------------|-----------------------
|---------------------------------------------|-----------------------
|----------------3------3-------------3-------|-3--------------------- 
|---------------------------------------------|--------2--------------
|--0-2----2----2---2------2----2----2---2-----|---2----2-0-2-0-2------
[ Tab from: http://www.guitartabs.cc/tabs/s/sevendust/praise_tab.html ]
|-------------------------------------------------------------|
|-------------------------------------------------------------|
|-------------------------------------------------------------|
|---------------3------3-------------3-----------3------------|
|-0-2---------------------------------------------------------|
|-0-2----2----2---2------2----2----2---2------------2----2----|

      This is pretty much most the intro, jus listen to the song and 
    figure out how many times to play this shit.
                      EnJoY,
                        T-GunZ
Comments