Sevendust - Pieces Chords & Tabs

 

Pieces Chords & Tabs

Sevendust Chords & Tabs

Version: 1 Type: Tab 0 ratings
1 star 2 stars 3 stars 4 stars 5 stars
comments

Pieces Tab

   
pieces
tuning (B F# B E G# C#)
guitar 1 - sonny mayo
guitar 2 - john connolly

intro
gtr1
C#---------------------------
G#---------------------------
E----------------------------
B----------------------------
F#---------------------------
B---1p0-0-1p0-0-1p0-0-1p0-0h2
(gtr 2)
C#--------------------------------------
G#--------------------------------------
E---------------------------------------
B---7-7h8-7--7h8-7-8-10-----------------
F#--------------------------------------
B--------------------------

verse pt1(gtr 1&2)
C#--------------------------------------
G#--------------------------------------
E---------------------------------------
B---------------------------------------
F#--------------------------------------
B---0-1-0-1-0-1-0-1-0-1-0-1-3-3-3-3-----
[ Tab from: http://www.guitartabs.cc/tabs/s/sevendust/pieces_tab.html ]
verse pt2(gtr 1&2)
C#---------------------------------------------------------------------------
G#---------------------------------------------------------------------------
E----------------------------------------------------------------------------
B----------------------------------------------------------------------------
F#---------------------------------------------------------------------------
B---0-12-9-0-12-9-0-12-9-0-12-9-0-9-10--0-12-9-0-12-9-0-12-9-0-12-9-0-8-8-8-8

pre chourus(gtr 1&2)
C#------------------
G#------------------
E-------------------
B-------------------
F#--000-0-000-0-x-xx
B---000-0-000-0-x-xx

chourus(gtr 1&2)
C#---------------------
G#---------------------
E---------------7-8-7-8
B---------------x-x-x-x
F#--000-0-000-0-5-6-5-6
B---000-0-000-0--------

interlude after 1st chourus(gtr 1&2)
C#------------------------------
G#------------------------------
E-------------------------777---
B-------------------------xxx---
F#--1p0-0-1p0-0-1p0-0-1p0-555---
B---1p0-0-1p0-0-1p0-0-1p0-------

solo( john connolly)need digitech whammy and a dimebag darrell sig wah wah
because if none of you know john is a big dimebag fan
C#---------------------------
G#---------------------------
E----------------------------
B---7-7h8-7-8--7-7h8-7-10----
F#---------------------------
B----------------------------x2
use the root notes here to finish the solo in not hard it just you need the
pedals to figure it out more easily


Comments