Sevendust - Live Again Chords & Tabs

 

Live Again Chords & Tabs

Sevendust Chords & Tabs

Version: 3 Type: Tab 0 ratings
1 star 2 stars 3 stars 4 stars 5 stars
comments

Live Again Tab

   
Live Again-Sevendust
Animosity

*Special Tuning*:

B F# B E F# B

( ) - harmonics


Intro: Fig 1.

b-----------------------------------------------------------------
f-----------------------------------------------------------------
e-----------------------------------------------------------------
b-----0-0---x-x-x-------x-x-x-------x-0-0---x-x-x-0-0---------2~~-
f-----0-0---x-x-x-0-0---x-x-x-------x-0-0---x-x-x-0-0---0-3p0-----
b-----0-0---x-x-x-0-0---x-x-x-------x-0-0---x-x-x-0-0-------------

b-----------------------------------------------------------------
f-----------------------------------------------------------------
e-----------------------------------------------------------------
b-----0-0---x-x-x-------x-x-x-------x-0-0---x-x-x-0-0-------------
f-----0-0---x-x-x-0-0---x-x-x-------x-0-0---x-x-x-0-0---3h5p3h5---
b-----0-0---x-x-x-0-0---x-x-x-------x-0-0---x-x-x-0-0-------------

Verses: Riff A x2

b-----------------------------------------------------------------
f-----------------------------------------------------------------
e-15------------13-------------------14------10-----9---------17--
b--x-------------x--------------------x-------x-----x----------x--
f-13------------10-------------------12-------8-----7---------15--
b-----------------------------------------------------------------

then

Gtr 1. x2

b-----------------------------------------------------------------
f-----------------------------------------------------------------
e-15------------13-------------------14------10-----9---------17--
b--x-------------x--------------------x-------x-----x----------x--
f-13------------10-------------------12-------8-----7---------15--
b-----------------------------------------------------------------

Gtr 2. x2

b-----------------------------------------------------------------
f-----------------------------------------------------------------
e-/10~~~~~~~~~~--9-------------------9/10~~~~~~~~~~~7----------9--
b-----------------------------------------------------------------
f-----------------------------------------------------------------
b-----------------------------------------------------------------

Pre Chorus:

x2
b-----------------------------------------------------------------
f-----------------------------------------------------------------
e---10---10~~~~---10-----5---5---9---9----------------------------
b-----------------------------------------------------------------
f-----------------------------------------------------------------
b-8----8-------8-------3---3---7---7------------------------------
[ Tab from: http://www.guitartabs.cc/tabs/s/sevendust/live_again_tab_ver_3.html ]
then
b-----------------------------------------------------------------
f-----------------------------------------------------------------
e---7---7~~~~~---7------5---5~~~~~~-------------------------------
b-----------------------------------------------------------------
f-----------------------------------------------------------------
b-5---5--------5---5--7---7---------------------------------------

Chorus:

b-----------------------------------------------------------------
f-----------------------------------------------------------------
e---7---7~~~~-----7------7---6~~~~----6--7------------------------
b-0---0-------0---------------------------------------------------
f-----------------------------------------------------------------
b----------------------7---7-------7------------------------------

b-----------------------------------------------------------------
f-----------------------------------------------------------------
e---7---7~~~~-----7------5---5---3---3----------------------------
b-----------------------------------------------------------------
f-----------------------------------------------------------------
b-8---8-------8--------3---3---5---5------------------------------

Mini Outro Solo:

b------19------19------15-17-19------19------19----19br--17-------
f------17------17-------------------------------------------------
e-----------------------------------------------------------------
b-----------------------------------------------------------------
f-----------------------------------------------------------------
b-----------------------------------------------------------------

b------19------19------15-17-15--17/19--19-----19~~~~~~~-17---17--
f------17------17-------------------------------------------------
e-----------------------------------------------------------------
b-----------------------------------------------------------------
f-----------------------------------------------------------------
b-----------------------------------------------------------------

Free Time: Tapped harmonics

b-----------------------------------------------------------------
f-----------------------------------------------------------------
e-------7(14)--7(14)-----7(14)-5(12)-----7(14)-5(12)~-----7(14)---
b-0(12)-------------0(12)-----------0(12)------------0(12)--------
f-----------------------------------------------------------------
b-----------------------------------------------------------------

b-----------------------------------------------------------------
f-----------------------------------------------------------------
e------7(14)-----------------------------------------------------
b-0(12)-----------------------------------------------------------
f-----------------------------------------------------------------
b-----------------------------------------------------------------
ran outta room


thatís all
from gtr one.....as always

trevor jones
timmy91199@yahoo.ca
Comments