Sevendust - Live Again Chords & Tabs

 

Live Again Chords & Tabs

Sevendust Chords & Tabs

Version: 2 Type: Tab 0 ratings
1 star 2 stars 3 stars 4 stars 5 stars
comments

Live Again Tab

Sevendust - Live again
Transcribed by Richard Sibley.
Feel free to email me at richard at vaultworld dot com!
------------------------------------------------------

I know there are multiple guitars in this song, and it 
may be played on a 7-string (?), but I wanted to arrange 
a version that could be played with one guitar and with
a "normal" tuning.

- Drop D tuning


Order of riffs:

(Intro)
(Verse 1)
(Pre-Chorus)
(Chorus)
(Intro)
(Verse 2)
(Pre-Chorus)
(Chorus)
(Intro)
[Bridge] Use Chorus riff 2 times
(Chorus) 
[Outro] Use Chorus riff 4 times


[Intro]
|-------------------------|-----------------------------|
|-------------------------|-----------------------------|
|--4-4--x-x-x-4-4--x-x-x--|--4-4--x-x-x-4-4--x----------|
|--4-4--x-x-x-4-4--x-x-x--|--4-4--x-x-x-4-4--x----------|
|--2-2--x-x-x-2-2--x-x-x--|--2-2--x-x-x-2-2--x-0---4~~~-|
|-------------------------|----------------------4------|

|--------------------------|---------------------------|
|--------------------------|---------------------------|
|--4-4--x-x-x-4-4--x-x-x---|--4-4--x-x-x-4-4-----------|
|--4-4--x-x-x-4-4--x-x-x---|--4-4--x-x-x-4-4-----------|
|--2-2--x-x-x-2-2--x-x-x---|--2-2--x-x-x-2-2--0h2p0h2--|
|--------------------------|---------------------------|
[ Tab from: http://www.guitartabs.cc/tabs/s/sevendust/live_again_tab_ver_2.html ]
[Verse]                                4x
||---------------|---------------------||
||o--------------|--------------------o||
||--0------------|------------------2--||
||------2-x-x----|-4---0--------x-x----||
||o-------x-x----|--------x--4--x-x---o||
||--------x-x----|--------x-----x-x----||

[Pre-Chorus]
|------------------|-----------------|-------------------|
|---3---3~~~~---3--|-----------2---2-|---3---3~~~~---3---|
|------------------|---2---2---------|-------------------|
|------------------|-----------------|-------------------|
|------------------|-----------------|-------------------|
|-5---5-------5----|-0---0---4---4---|-5---5-------5-----|

|-----------------|-------------------|----------------|
|-----------2---2-|---0---0-------0---|----------------|
|---2---2---------|-------------------|---2---2--------|
|-----------------|-------------------|----------------|
|-----------------|-------------------|----------------|
|-0---0---4---4---|-2---2-------2---2/|/4---4----------|

[Chorus]
||-------------------|-------------------|
||o------------------|-------------------|
||----4---4~~~~---4--|---4---3~~~~---3h4-|
||-------------------|-------------------|
||o-2---2-------2----|-------------------|
||-------------------|-4---4-------4-----|

|------------------|-------------------||
|---4---4~~~~---4--|---2---2---0---0--o||
|------------------|-------------------||
|------------------|-------------------||
|------------------|------------------o||
|-5---5-------5----|-0---0---2---2-----||

Comments