Sevendust - Enemy Chords & Tabs

 

Enemy Chords & Tabs

Sevendust Chords & Tabs

Version: 1 Type: Tab 0 ratings
1 star 2 stars 3 stars 4 stars 5 stars
comments

Enemy Tab

   
Sevendust-Enemy
Seasons
Tuning: Bb-F-Bb-Eb-G-C
Tabbed by: Robert Walden

INTRO IS SAME AS VERSE EXCEPT THE PICKUP SWITCH IS ONE BACK, AND WAH IS CLOSED...
------------------------------------------------------------------
------------------------------------------------------------------
------------------------------------------------------------------
------------------------------------------------------------------
-00-0-0-0-0-0-00-00-0-0-0-----333-00-0-0-0-0-0-00-00-0-0-0-----000
-00-0-0-0-0-0-00-00-0-0-0-333-----00-0-0-0-0-0-00-00-0-0-0-333----

CHORUS
----------------------------------------------
----------------------------------------------
-555555------------------555555---------------
-555555-777777-000000----555555-7777-8888-0000
-333333-777777-000000----333333-7777-8888-0000
--------777777-000000-----------7777-8888-0000
[ Tab from: http://www.guitartabs.cc/tabs/s/sevendust/enemy_tab.html ]
POST CHORUS
----------------------------
----------------------------
----------------------------
----------------------------
-00-0-0-0-0-0-00-00-0-0-0-00
-00-0-0-0-0-0-00-00-0-0-0-00

BRIDGE-GUITAR ONE
----------------------------
----------------------------
----------------------------
----------------------------
-0-0-000-0-0-000-0-0-000-0-0
-0-0-000-0-0-000-0-0-000-0-0

BRIDGE-GUITAR TWO-TREMOLO PICKING
-13-13-13-13-13-13-12-12-12-12-12-12---------13-13-13-13-13-13
--------------------------------------------------------------
--------------------------------------------------------------
--------------------------------------------------------------
--------------------------------------------------------------
--------------------------------------------------------------

I think thats just about all the guitar parts, its not really in order just use
your ears and piece it together that way, as soon as Seasons comes out, there
will definitly be more Sevendust tabs coming from me...until then IM me at
kornfellow91 with comments..
Comments