Sevendust - Broken Down Chords & Tabs

 

Broken Down Chords & Tabs

Sevendust Chords & Tabs

Version: 1 Type: Tab 0 ratings
1 star 2 stars 3 stars 4 stars 5 stars
comments

Broken Down Tab

   
Band- Sevendust
Song- Broken Down

Tuning: Drop B  (B F# B D# G# C#)


INTRO
|------------------------------------|
|------------------------------------|
|--0--12--0--12--0--12--0--13--12----|
|------------------------------------|



MAIN
|--------------------------------------------------------------------|
|--------------------------------------------------------------------|
|-7----------------5----------------0---------------10---------------|
|-7----------------5----------------0---------------10---------------|
|-7----------------5----------------0---------------10---------------|



|--------------------------------------------------------------------|
|-----------------------------------7--------------------------------|
|-7----------------5---------------------------------8---------------|
|-7----------------5----------------5----------------8---------------|
|-7----------------5---------------(0)---------------8---------------|




VERSE
|--------10-------------------------8---7-------7---5--------|
|-------------------------------------------5-----------3----|
|-9-----------9----------------------------------------------|  1,3
|------------------------------------------------------------|
|------------------------------------------------------------|
|------------------------------------------------------------|


|--------10-------------------------8---7-------5-/-7--------|
|-------------------------------------------5-----------3----|
|-9-----------9----------------------------------------------|  2
|------------------------------------------------------------|
|------------------------------------------------------------|
|------------------------------------------------------------|

[ Tab from: http://www.guitartabs.cc/tabs/s/sevendust/broken_down_tab.html ]
|--------10-----------------------------10-------------------|
|------------------------------------------------------------|
|-9-----------9------------------9-----------9---------------|  4
|------------------------------------------------------------|
|------------------------------------------------------------|
|------------------------------------------------------------|




(Variation of MAIN, played sometimes during chorus)
|--------------------------------------------------------------------|
|-----------------------------------7--------9-----------------------|
|-7----------------5----------------------------------8--------------|
|-7----------------5----------------5--------7--------8--------------|
|-7----------------5----------------------------------8--------------|



MIDDLE
|-----------------------------------------------------------------------|
|-----------------------------------------------------------------------|
|-----------12--13--12---------12--12----------0--12--0--12--0--13--12--|
|-15--------------------------------------------------------------------|



OUTRO   (???)
|-------------------------------------------------------------------|
|-/9----------9---9---9--------9---9-----------------9/10---7-------|
|---------------------------------------------7---------------------|
|-/7----------7---7---7--------7---7----------7------7/8----5-------|
|---------------------------------------------7---------------------|
|
|Guitar 2
|-------------------------------------------------------------------|
|-/12--------12--12--12--------12--12---------------12/13--12-------|
|-------------------------------------------------------------------|
|-/10--------10--10--10--------10--10---------0-----10/11--10-------|
|-------------------------------------------------------------------|
Comments