Sevendust - Bitch Chords & Tabs

 

Bitch Chords & Tabs

Sevendust Chords & Tabs

Version: 4 Type: Tab 0 ratings
1 star 2 stars 3 stars 4 stars 5 stars
comments

Bitch Tab

Sevendust
"Bitch"

Intro:
--5-5-5-5-5-5-5-5-5-5---5-5-5-5-5-5-5-5-5-5--
--7-7-7-7-7-7-7-7-7-7---5-5-5-5-5-5-5-5-5-5--
--7-7-7-7-7-7-7-7-7-7---6-6-6-6-6-6-6-6-6-6--
--7-7-7-7-7-7-7-7-7-7---7-7-7-7-7-7-7-7-7-7--
--5-5-5-5-5-5-5-5-5-5---7-7-7-7-7-7-7-7-7-7--
--5-5-5-5-5-5-5-5-5-5---5-5-5-5-5-5-5-5-5-5--
[ Tab from: http://www.guitartabs.cc/tabs/s/sevendust/bitch_tab_ver_4.html ]
--3-3-3-3-3-3-3-3-3-3---3-3-3-3-3-3-3-3-3-3---
--5-5-5-5-5-5-5-5-5-5---3-3-3-3-3-3-3-3-3-3---
--5-5-5-5-5-5-5-5-5-5---4-4-4-4-4-4-4-4-4-4---
--5-5-5-5-5-5-5-5-5-5---5-5-5-5-5-5-5-5-5-5---
--3-3-3-3-3-3-3-3-3-3---5-5-5-5-5-5-5-5-5-5---
--3-3-3-3-3-3-3-3-3-3---3-3-3-3-3-3-3-3-3-3---

Verses:
------------------------------------------------
------------------------------------------------
------------------------------------------------
--7-7-7-7-7--6-6--5-5---------------------------
--7-7-7-7-7--6-6--5-5---------------------------
--5-5-5-5-5--4-4--3-3---------------------------
Comments