Sevendust - Bitch Chords & Tabs

 

Bitch Chords & Tabs

Sevendust Chords & Tabs

Version: 3 Type: Tab 1 rating
1 star 2 stars 3 stars 4 stars 5 stars
comments

Bitch Tab

   
Ok all the guys who tried to TAB this song, I appreciate it but you all got it really wrong and it annoys me cause it's a darn good song and it deserves to be played well!
I watched the Video clip version of the song and all I did was stare at the guy's fingers on the guitar and had my Digital Tuner Nearby to prove if the sound corresponds with the position of his hands.

SO the REAL intro would be on an electric clean guitar with Thick Strings and the Tuning is STANDARD E ...yeah It's hard to beleive right well thats how it is it goes:

Open D chord, then Open A Chord then Barre C Chord in the Third Position followed by Barre G Chord in the Third position and try to avoid hitting your Higher E string at all times, just the simple Rock guitarist rule.
Ok Let's draw that for your ease:


  1       2       3       4       
E|--------------------------------|
B|--------------------------------|
G|----------------------------x-x-|
D|----------------------------x-x-|
A|----------------------------x-x-|
E|--------------------------------|
[ Tab from: http://www.guitartabs.cc/tabs/s/sevendust/bitch_tab_ver_3.html ]
  D                                A                                
  1       2       3       4        1       2       3       4        
E|--------------------------------|--------------------------------|
B|--------------------------------|--------------------------------|
G|2-------2-----2-2-----2-2---2-2-|2-------2-----2-2-----2-2---2-2-|
D|0-------0-----0-0-----0-0---0-0-|2-------2-----2-2-----2-2---2-2-|
A|0-------0-----0-0-----0-0---0-0-|0-------0-----0-0-----0-0---0-0-|
E|--------------------------------|--------------------------------|

  C                                G                                
  1       2       3       4        1       2       3       4        
E|--------------------------------|--------------------------------|
B|--------------------------------|--------------------------------|
G|5-------5-----5-5-----5-5---5-5-|--------------------------------|
D|5-------5-----5-5-----5-5---5-5-|5-------5-----5-5-----5-5---5-5-|
A|3-------3-----3-3-----3-3---3-3-|5-------5-----5-5-----5-5---5-5-|
E|--------------------------------|3-------3-----3-3-----3-3---3-3-|

  D                                A                                
  1       2       3       4        1       2       3       4        
E|--------------------------------|--------------------------------|
B|--------------------------------|--------------------------------|
G|2-------2-----2-2-----2-2---2-2-|2-------2-----2-2-----2-2---2-2-|
D|0-------0-----0-0-----0-0---0-0-|2-------2-----2-2-----2-2---2-2-|
A|0-------0-----0-0-----0-0---0-0-|0-------0-----0-0-----0-0---0-0-|
E|--------------------------------|--------------------------------|

  C                                G       F#  Slam that Sequence Twice Then;

--> Riff 2 (bridge) Again Then;

--> Riff 1 (intro) Then;

After this Comes Riff 4 and 5 I'll tab them when I get back home this evening, meanwhile You can start practicing this first half when I'm back I'll finish it and Replace thisone so check back soon.

-Long-



Comments