Seven Ways Out - Open The Door Chords & Tabs

 

Open The Door Chords & Tabs

Seven Ways Out Chords & Tabs

Version: 1 Type: Bass Tab 0 ratings
1 star 2 stars 3 stars 4 stars 5 stars
comments

Open The Door Bass Tab

Artist: Seven Ways Out
Song: Open The Door
[ Tab from: http://www.guitartabs.cc/tabs/s/seven_ways_out/open_the_door_btab.html ]
Intro and Verse
|-----------------|-----------------|-----------------|-----------------|
|-----------------|-----------------|-----------------|-----------------|
|-7-7-7-7-7-7-7-7-|-----------------|-----------------|-----------------|
|-----------------|-7-7-7-7-7-7-7-7-|-9-9-9-9-9-9-9-9-|-7-7-7-7-7-7-7-7-|

This is the pre-chorus and chorus.
|-----------------|
|-----------------|
|--7--------------|   
|-----7--9--7-----|

Guitar Solo (Play this through entire solo)
|-----------------|
|-----------------|
|-----------------|
|--0-0-0-0-0-0-0--|
Comments