Seven Mary Three - Waters Edge Chords & Tabs

 

Waters Edge Chords & Tabs

Seven Mary Three Chords & Tabs

Version: 7 Type: Tab 0 ratings
1 star 2 stars 3 stars 4 stars 5 stars
comments

Waters Edge Tab

   
********************************
*Waters Edge - Seven Mary Three*
********************************

Tabbed by : fret_alive

I like playing it this way, has alot more volume to the sound...

e|---------------------------------------|
B|---------------------------------------|
G|----0-----0---0------------------------|
D|---9-----5----0------------------------|
A|--7-----3----5-------------------------|
E|-0---------3---------------------------|
[ Tab from: http://www.guitartabs.cc/tabs/s/seven_mary_three/waters_edge_tab_ver_7.html ]
		        h   h    h   h
e|-7-7-xxxxx---7-|-(5)------(7)-----------|
B|-7-7-xxxxx---7-|-----(5)------(7)-------|
G|-9-9-xxxxx---9-|------------------------|
D|-9-9-xxxxx---9-|------------------------| 
A|-7-7-xxxxx---7-|------------------------|
E|---------------|------------------------|

(chorus)			
e|-7-xxx--10|-/-3-3-xx-3--3----------|
B|-7-xxx--10|-/-3-3-xx-3--3----------|
G|-9-xxx--9-|-/-5-5-xx-3--3----------|
D|-9-xxx--9-|-/-5-5-xx-5--5----------| 
A|-7-xxx--7-|-/-3-3-xx-5--5----------|
E|----------|----------3--3----------|

(Play around with this part)
Comments