Seven Mary Three - Waters Edge Chords & Tabs

 

Waters Edge Chords & Tabs

Seven Mary Three Chords & Tabs

Version: 1 Type: Tab 0 ratings
1 star 2 stars 3 stars 4 stars 5 stars
comments

Waters Edge Tab

   
Seven Mary Three
Water's Edge

I know they play it a little differnt live. But this is the recorded version. 
Its just the chord progression picked out.

|-------------------------|
|-------------------------|
|----0-----0-----0--------|
|---2-----5-----7---------|
|--2-----3-----5----------|
|-0-----------------------|
[ Tab from: http://www.guitartabs.cc/tabs/s/seven_mary_three/waters_edge_tab.html ]
chords are the same just strummed instead of picked
  Em C  D
|------------|
|------------|
|-0--5--7----|
|-2--5--7----|
|-2--3--5----|
|-0----------|

Or you can play it thisw way
  Em C  D
|----0--2---|
|----1--3---|
|-0--0--2---|
|-2--2--0---|
|-2--3------|
|-0--0------|

James Green
Scout2527@aol.com
Comments