Seven Mary Three - Waters Edge Chords & Tabs

 

Waters Edge Chords & Tabs

Seven Mary Three Chords & Tabs

Version: 1 Type: Bass Tab 0 ratings
1 star 2 stars 3 stars 4 stars 5 stars
comments

Waters Edge Bass Tab

   
Seven Mary Three - Waters Edge
Tabbed By: Johnny Ed R.


Relatively hard song but if if you practice it you'll get it!!!!

[ Tab from: http://www.guitartabs.cc/tabs/s/seven_mary_three/waters_edge_btab.html ]
  |----------------------------------|
  |----------------Guitar------------|
  |----------------------------------|
  |----------------------------------| 
After Guitar Intro when drums start
  |-------------------------------------|
  |-------------------------------------|
  |-------------------------------------|
  |---0-0-0-0-0-0-0---3-3-3-3---5-5-5-5-| 
 
I CANT GO DOWN TO TO THE WATERS EDGE
  |-----------------------------8b-2-----|
  |------------------------5-7-----------|
  |------------------5-7-----------------|
  |-0bu---0bu----2-7---------------------| 

I didn't do anything
to stop
to stop
to stop
to stop
  |---------------------------------------|
  |--------------------12--1-------1-2----|
  |----------3-8--6-1---------6-1---------|
  |-----7-2-------------------------------| Don't go down to the water's edge. Your safe with me.

  |---------------------------------------|
  |---------------------------------------|
  |---------------------------------------|
  |---3-3-3-3-3-18-3-3---5-5-5-5-5-5-5-5.2-| 
I SWAM I SWAM
  |----------------------------8----------|
  |--------------------------7---7--------|
  |---15---14---19----7----6-------6------|
  |-1----2----3----6-----5------------1.5-| 


Bu-hard Buzz
B- bend
Comments