Seven Mary Three - My My Chords & Tabs

 

My My Chords & Tabs

Seven Mary Three Chords & Tabs

Version: 2 Type: Tab 0 ratings
1 star 2 stars 3 stars 4 stars 5 stars
comments

My My Tab

   
Artist: Seven Mary Three
Song: "My, my"
Album: American Standard
Transcribed by: Joe (Superjoe45@yahoo.com)

VERSE 1:
        G              A                 B       A            G
My, my, stomach hurts again, tonight she says, crashes on her floor
                A            B                 A
That’s what she can’t untie, ties it to a door

CHORUS:
       G           A               B
And if mercy was a cattle call, she didn't hear, 
     A                G                 A                    B~
She did not want to play the role of a fool again, won’t be fooled again

G            A             B        A                   G
Indifference as my witness, and I’d think she’d take me back, 
               A                    B~
She tears down my front door just to see my photograph

VERSE 2:
        G               A               B                A               G
My, my, head is getting so confused she says, what’s she trying to do to me
               A          B            A
Put my sticker on her car, bought a CD

CHORUS:
       G           A               B
And if mercy was a cattle call, she didn't hear, 
    A               G                  A                    B~
She did not want to play the role of a fool again, won’t be fooled again

G            A             B        A                   G
Indifference as my witness, and I’d think she’d take me back, 
               A                    B~
She tears down my front door just to hear my phonograph

BRIDGE: (chords tabbed at bottom)
            G A B A
It spins...
G                  A                  B                   A               G
Ain’t too proud to beg sweet darlin’, don’t you leave me, baby, don’t you go
                   A                  B
Ain’t too proud to beg sweet darlin’, don’t you leave me
[ Tab from: http://www.guitartabs.cc/tabs/s/seven_mary_three/my_my_tab_ver_2.html ]
SOLO: (G A B A 3x, G A B~)
e||---------------------------------------------------------------------------------------|
B||----------------------------------3-5-5/-6-6-6-6-6-5-3-0-------------------------------|
G||--------0-2-2~-2-0-2-2-2/4~-4-2-4------------------------2-4~-4-2-0--------------------|
D||-0--0-2-------------------------------------------------------------2-2~-2-0-------6b5-|
A||-----------------------------------------------------------------------------2-0-2-----|
E||---------------------------------------------------------------------------------------|

e|-----(5)--------------------------------------------------------------------------------|
B|-6\5------------------------------------------------------------------------------------|
G|-------------------12h14p12----------------------------------------14/16\14-12----------|
D|----------12-12h14----------14-12-12-14-14/16\14-12----------12-14-------------14-12-14-|
A|----------------------------------------------------14-12-14----------------------------|
E|----------------------------------------------------------------------------------------|

e|-------------------------------------------------------------------------------------||
B|-------12-12-12-12-12-12-12-12-14-14-14-14-14-14-14-14-15-15-15-15-15-15-15-15-17/18-||
G|-12-14-------------------------------------------------------------------------------||
D|-------------------------------------------------------------------------------------||
A|-------------------------------------------------------------------------------------||
E|-------------------------------------------------------------------------------------||

VERSE 3:
        G                    A                B                     A
My, my, skin can’t take much more of this she said, scalin’ over me
G            A           B~
Every time I wash it off, I find you underneath

CHORUS:
       G           A               B
And if mercy was a cattle call, she didn't hear, 
    A               G                  A                    B~
She did not want to play the role of a fool again, won’t be fooled again


BRIDGE TABBED:
   G           A           B           A
e|------------------------------------------------|
B|------3-0---------3-0---------3-0---------3-0---|
G|----------0----2------0----4------0----2------0-|
D|---5----------2-----------4-----------2---------|
A|--5----------0-----------2-----------0----------|
E|-3----------------------------------------------|
Comments