Seven Mary Three - Cumbersome Chords & Tabs

 

Cumbersome Chords & Tabs

Seven Mary Three Chords & Tabs

Version: 3 Type: Tab 0 ratings
1 star 2 stars 3 stars 4 stars 5 stars
comments

Cumbersome Tab

seven mary three - cumbersome
standard tuneing
listen to the song for the strumming pattern theres alot of palm muteing
[ Tab from: http://www.guitartabs.cc/tabs/s/seven_mary_three/cumbersome_tab_ver_3.html ]
intro                         
|--2--------0-------------2--|
|--2--------0-------------2--|
|--3--------1-------------3--|
|--4--------2-------4-----4--|
|--4--------2-------2-----4--|
|--2--------0-------2-----2--|
                                        
  part 2                   
|--2--2-----------5--5---------------0--0-----------2--|
|--2-----2--------5-----5------------0-----0--------2--|
|--3--------3-----6--------6---------1--------1-----3--|
|--4--------------7------------------2--------------4--|
|--4--------------7------------------2--------------4--|
|--2--------------5------------------0--------------2--|
                                        
  part 3                            
|--2-----5-----0--0-----2--|
|--2-----5-----0--0-----2--|
|--3-----6-----1--1-----3--|
|--4-----7-----2--2-----4--|
|--4-----7-----2--2-----4--|
|--2-----5-----0--0-----2--|
                                        
  part 4                            
|------------------0---------| 
|------------------0---------|
|------------------9---------|
|--11-----9-----9--------11--|
|--9------7-----9--------9---|
|--9------7-----7--------9---|
                                        
    part 5                           
|--5-----2-----0-----2--|
|--5-----2-----0-----2--|
|--6-----3-----1-----3--|
|--7-----4-----2-----4--|
|--7-----4-----2-----4--|
|--5-----2-----0-----2--|

 part 6                          
|--2-----2-----0-----0----------0-----2--------------| 
|--2-----------0----------------------2--------------|
|--3-----------1----------------------3-----3^-^-^---|
|--4-----------2-----------4----------4--------------|
|--4-----------2-----------2----------4--------------|
|--2-----------0-----------2----------2--------------|

       part 7                          
|------------------------------------------------------|
|------------------------------------------------------|
|--------------9--10-----10--9-------------------------|
|-------9--10-------------------10--9------------------|
|9--10-----------------------------------10--9---------|
|-----------------------------------------------10--9--|
Comments