Seven Mary Three - Cumbersome Chords & Tabs

 

Cumbersome Chords & Tabs

Seven Mary Three Chords & Tabs

Version: 2 Type: Tab 0 ratings
1 star 2 stars 3 stars 4 stars 5 stars
comments

Cumbersome Tab

-------------------------------------------------------------------------------
			     Cumbersome - Seven Mary Three
-------------------------------------------------------------------------------

By: Stampx

x = scratches
~ = slight pause

e|------------------------------~------------------------------------------|
B|------------------------------~------------------------------------------|
G|--3-3-xxx-3-3-xxx-3-3-xxx-1---~---xxxx-1-1-xxx-1-1-xxx-1-1-xxx-3---------|x2
D|--4-4-xxx-4-4-xxx-4-4-xxx-2---~---xxxx-2-2-xxx-2-2-xxx-2-2-xxx-4---------|
A|--4-4-xxx-4-4-xxx-4-4-xxx-2---~---xxxx-2-2-xxx-2-2-xxx-2-2-xxx-4---------|
E|------------------------------~------------------------------------------|
[ Tab from: http://www.guitartabs.cc/tabs/s/seven_mary_three/cumbersome_tab_ver_2.html ]
    I  have be-come com-ber-some xxxx to this world           (fill)  
e|-------------------------------------------------------------------------|
B|-------------------------------------------------------------------------|
G|--3---3---3-3-3331-xxxx-1---1---1-1-1113---------------3xx3x33x333-------|x2
D|--4---4---4-4-4442-xxxx-2---2---2-2-2224---------------4xx4x44x444-------|
A|--4---4---4-4-4442-xxxx-2---2---2-2-2224---------------4xx4x44x444-------|
E|-------------------------------------------------------------------------|


as far as i can see thats the whole main part of the song, i tried to make it
so you can understand the pauses and scratches and i think if you listen to the
song you will be able to see the tab and song correspond.
Comments