Seven Mary Three - Cumbersome Chords & Tabs

 

Cumbersome Chords & Tabs

Seven Mary Three Chords & Tabs

Version: 1 Type: Bass Tab 0 ratings
1 star 2 stars 3 stars 4 stars 5 stars
comments

Cumbersome Bass Tab

   
#-----------------------------------------------------------------------------#
#-- File created with Instab - http://www.pconline.com/~smcarey/instab.html --#
#-----------------------------------------------------------------------------#

Author/Artist: Seven Mary Three
Title: Cumbersome
Album: ?
Transcribed by: Dragon_king
Email: Dragon_king001@hotmail.com

This is the awesome bass tab. I'm pretty sure it is 100% correct. Have fun.
Standard Tuning:
E A D G
[ Tab from: http://www.guitartabs.cc/tabs/s/seven_mary_three/cumbersome_btab.html ]
------------------------------------------------------------------------------
------------------------------------------------------------------------------
------------------------------------------------------------------------------
------------------3-3-3333-5-3-5-0--------------------------------------------
----------3-5-3-5------------------3-3-3333-5-3-5-0---------------------------
-0h3-3333-------------------------------------------3-3-333-------------------
                                                                              

------------------------------------------------------------------------------
------------------------------------------------------------------------------
------------------------------------------------------------------------------
------------------------3-3-3333-5-3-5-0--------------------------------------
----------------3-5-3-5------------------3-3-3333-5-3-5-0---------------------
-7\3-33-33-3333-------------------------------------------3-3-333-------------
 for the solo slide down and there are also some extra licks like this        

Comments