Seven Days Away - Pages In Pieces Chords & Tabs

 

Pages In Pieces Chords & Tabs

Seven Days Away Chords & Tabs

Version: 1 Type: Tab 0 ratings
1 star 2 stars 3 stars 4 stars 5 stars
comments

Pages In Pieces Tab

   
seven days away
"pages in pieces"
drop-D tuning
distortion/clean


 intro:
e--------------------------------------------------------------------
b--------------------------------------------------------------------
g--------------------------------------------------------------------
d--4-4-4-4----------------4-4-4--2-2-2-2---4-4-4--2-2-2--------------
a--4-4-4-4--7-7-7--6-6-6--4-4-4--2-2-2-2---2-2-2--2-2-2--5-4---------
d--4-4-4-4--4-4-4--4-4-4--4-4-4--2-2-2-2---2-2-2--2-2-2--2-2---------

e----------------|
b----------------|
g--7--7--7--9----| these last four chords are stummed six times each.
d--7--7--7--9----|
a--5--4--5--7----|
d----------------|
[ Tab from: http://www.guitartabs.cc/tabs/s/seven_days_away/pages_in_pieces_tab.html ]
 intro chorus as well as the chorus:
e----------------------------------------------------------|
b------------------------------------7--7-7-9-7--7--7-7-9--|
g------------------------------------7--7-7-9-7--7--7-7-9--|
d--4-x-x-x--4-x-x-x--4-x-x-x--4-x-2--5--4-5-7-5--5--4-5-7--|
a--4-x-x-x--4-x-x-x--4-x-x-x--4-x-2------------------------|
d--4-x-x-x--4-x-x-x--4-x-x-x--4-x-2------------------------|

 verse: each of these two chords is stummed twelve times before the switch.
e-------------------------------------------------------------------------|
b-------------------------------------------------------------------------|
g-------------------------------------------------------------------------|
d--4--12---[14]-----------------------------------------------------------|
a--4--12---[14]-stum this chord right into the chorus.--------------------|
d--4--12---[14]-----------------------------------------------------------|

 bridge: play clean
e--------------------------------------------------|
b--------------------------------------------------|
g--11--9--7--9--11---------------------------------|
d--11--9--7--9--11-play this into the last chorus.-|
a--9---7--5--7--9----------------------------------|
d--------------------------------------------------|

 structure of the song:
       intro
       intro chorus
       verse
       chorus
       verse
       chorus
       bridge
       chorus
       end.

 sda_jwb@yahoo.com
Comments