Seven Day Jesus - Strength Chords & Tabs

 

Strength Chords & Tabs

Seven Day Jesus Chords & Tabs

Version: 2 Type: Bass Tab 0 ratings
1 star 2 stars 3 stars 4 stars 5 stars
comments

Strength Bass Tab

Strength
by Seven Day Jesus
(c) 1996 5 minute walk records
Michael (mmsmail@cc.owu.edu)

Listen for when the bass comes in
Verse 1: (Note the subtle differences throughout)                                        
A-------7-77------5-55------7-77-----5-5-3---------7-77-----5-5-3---------7-77-----3--5--5|
E--5-55------3-33------5-55------3-33-----5-3-5-55------3-33-----5-3-5-55------3-33-------|

Verse 2: (start playing when the music picks up)
                                    6x
A-----7-7----5-3--------7-7---5-3----| Use Distortion pedal  
E--5-5----33----5-3-5-5----33----5-3-| where you see this riff
[ Tab from: http://www.guitartabs.cc/tabs/s/seven_day_jesus/strength_btab_ver_2.html ]
Chorus:
A--88-8-77-7-----333333/7-|
E-----------55555---------|
                   4x
A----7-7----5-3----|   
E-5-5----33----5-3-|  

Bridge:

A--5-55--------------------------7-|
E-------5-55-8-88-7-77-5-55-3-33---|
                  4x            }
A----7-7----5-3----|            }    
E-5-5----33----5-3-|            } 
                                } Played under guitar solo
A--88-8-77-7-----333333/7-|     }
E-----------55555---------|     }
                  4x
A----7-7----5-3----|  
E-5-5----33----5-3-|

A--88-8-77-7-----333333/7-|
E-----------55555---------|

There you go, not too difficult once you figure it out.
Please Email me with any questions you may have
Comments