Seven Day Jesus - Forgive You Chords & Tabs

 

Forgive You Chords & Tabs

Seven Day Jesus Chords & Tabs

Version: 2 Type: Bass Tab 0 ratings
1 star 2 stars 3 stars 4 stars 5 stars
comments

Forgive You Bass Tab

forgive you
seven day jesus
the hunger
tabbed by jared gardner     punkrawkfreak@hotmail.com

start out with this:
G|----------------|
D|----------------|
A|----------------|
E|-2--2--2-2--2-2-|

the verse is just this:
G|----------------|
D|----------------|
A|----------------|
E|-4--4--4-4--4-4-|
[ Tab from: http://www.guitartabs.cc/tabs/s/seven_day_jesus/forgive_you_btab_ver_2.html ]
then the chorus goes like this:
G|---------------------------|
D|---------------------------|
A|---------------------------|
E|-7--7-7-4--4-7--7--7-4-4-4-|

after the chorus play this:
G|------------------------|
D|------------------------|
A|------------------------|
E|-4--4--4--4-4-4-7-4-4-7-|-7-7-7-7-|

then after that:
G|---------------|
D|---------------|
A|---------------|
E|-4--2--4--2--7-|

last little bit at the end
G|----------------|
D|----------------|
A|----------------|
E|-4-7-7-4-7-7-4\-|


that's all, i guess, have fun

ps  if it's not right, tell me: punkrawkfreak@hotmail.com
Comments