Seven Channels - Breathe Chords & Tabs

 

Breathe Chords & Tabs

Seven Channels Chords & Tabs

Version: 4 Type: Tab 0 ratings
1 star 2 stars 3 stars 4 stars 5 stars
comments

Breathe Tab

   
Intro

this is a great song! enjoy   

[ Tab from: http://www.guitartabs.cc/tabs/s/seven_channels/breathe_tab_ver_4.html ]
Clean
   C#                A                      
e|--------------------------------------------|  X2
B|--------------------------------------------|
G|--------------------------------------------|
D|---------------------------9-----11----9----|   
A|----6--7-----6--7-------9-----9-----9-----9-|
E|-4--------5--------7------------------------|

 | Distorted 				      |
 | C#                A                        |
e|--------------------------------------------|
B|--------------------------------------------|
G|-6--6---------------------------------------|
D|-6--6---------------------------------------|
A|-4--4---------------------------------------|
E|--------------------------------------------|
Comments