Seven Channels - Breathe Chords & Tabs

 

Breathe Chords & Tabs

Seven Channels Chords & Tabs

Version: 3 Type: Tab 0 ratings
1 star 2 stars 3 stars 4 stars 5 stars
comments

Breathe Tab

   
#----------------------------------PLEASE NOTE---------------------------------#
#This file is the author's own work and represents their interpretation of the #
#song. You may only use this file for private study, scholarship, or research. #
#------------------------------------------------------------------------------#



   Seven Channels
   Breathe

Hi! This is my first TAB so let me know
if there are any mistakes. It sounds pretty close.


  
Intro
[ Tab from: http://www.guitartabs.cc/tabs/s/seven_channels/breathe_tab_ver_3.html ]
   Clean
   C#                A                      
e|--------------------------------------------|  X2
B|--------------------------------------------|
G|--------------------------------------------|
D|---------------------------9-----11----9----|   
A|----6--7-----6--7-------9-----9-----9-----9-|
E|-4--------5--------7------------------------|
 |					      |
 | 					      |  
 |                                            |
e|--------------------------------------------|
B|--------------------------------------------|
G|--------------------------------------------|
D|--------------------------------------------|
A|--------------------------------------------|
E|--------------------------------------------|




   Clean
   C#                A                      
e|--------------------------------------------|  X2
B|--------------------------------------------|
G|--------------------------------------------|
D|---------------------------9-----11----9----|
A|----6--7-----6--7-------9-----9-----9-----9-|
E|-4--------5--------7------------------------|
 |					      |
 | Distorted 				      |
 | C#                A                        |
e|--------------------------------------------|
B|--------------------------------------------|
G|-6--6---------------------------------------|
D|-6--6---------------------------------------|
A|-4--4---------------------------------------|
E|--------------------------------------------|



Verse

C# A


Chorus

C# A B  F#


Enjoy

s_fullard@hotmail.com
Comments