Seven Channels - Breathe Chords & Tabs

 

Breathe Chords & Tabs

Seven Channels Chords & Tabs

Version: 2 Type: Tab 0 ratings
1 star 2 stars 3 stars 4 stars 5 stars
comments

Breathe Tab

   
Seven Channels - Breathe
-======================-
Artist 	  - Seven Channels
Song 	  - Breathe
Tabbed By - Clayton Botha
E-Mail    - theno69@hotmail.com

Intro: There are 2 ways to play the intro
-====- (1 sounds better, but 2 is easier to play)
(1) e|---------------------------------||---------------------------------||---|
    B|-----------------------2---------||-------------------------2-------||-2-|
    G|-------------2-------4---4-------||-------------2-------4-----4-----||-4-|
    D|---1-2---1-2-------4-------4-4---||---1-2---1-2-------4---4-----4---||-4-|
    A|-------0-------2---------------2-||-------0-------2---------------2-||-2-|
    E|-4-------------------------------||-4-------------------------------||---|
OR
(2) e|---------------------------------||---------------------------------||---|
    B|---------------------------------||---------------------------------||---|
    G|---------------------------------||---------------------------------||---|
    D|-------------7------9-11-9-------||-------------7------9---11-9-----||-9-|
    A|---6-7---6-7------9--------9-9---||---6-7---6-7------9---9------9---||-9-|
    E|-4-----5-------7---------------7-||-4-----5-------7---------------7-||-7-|

Verse:
-====-
e|-----------------------------||------------------------------|
B|-----------------------------||------------------------------|
G|-----6------6------6-x-4-4-4-||-----6------6-x-----8-9-11-11-|
D|-----6------6------6-x-4-4-4-||-----6------6-x-----8-9-11-11-|
A|-4-4---4--4---4--4---x-2-2-2-||-4-4---4--4---x-6-6---7--9--9-|
E|-----------------------------||------------------------------|

e|-----------------------------||------------------------------|
B|-----------------------------||------------------------------|
G|-----6------6------6-x-4-4-4-||-----6------8-9---9-11----11--|
D|-----6------6------6-x-4-4-4-||-----6------8-9---9-11----11--|
A|-4-4---4--4---4--4---x-2-2-2-||-4-4---4--6---7-7----9--9-----|
E|-----------------------------||------------------------------|
[ Tab from: http://www.guitartabs.cc/tabs/s/seven_channels/breathe_tab_ver_2.html ]
Powechord (Heavy Distortion)
e|-----||---0~~~-------0~~~--2-----|
B|-----||-2-------4--2---------4---| Guitar 2
G|-6-6-||---------1--------------6-| This part is clean
D|-6-6-||--------------------------|
A|-4-4-||--------------------------|
E|-----||--------------------------|

Chorus:
-=====-
   C#    A      B      F#
e|------------------------------|
B|------------------------------|
G|-6-6-6--------4--4-x----------| End On B
D|-6-6-6-7--7-x-4--4-x-4--4-4-x-|
A|-4-4-4-7--7-x-2--2-x-4--4-4-x-|
E|-------5--5-x--------2--2-2-x-|

Solo:
-===-
e|----------------------------------------------------|
B|----------------------------------------------------|
G|----------------------------------------------------|
D|-------2---2-4b5r4--2-4-2-1-2-1---1-----------------|
A|-9\2-4---2----------------------4---4-2-4-2-0-0-2-2-|
E|----------------------------------------------------|

e|-------------------------------------------------4-4-5-5-5---7-7-7-7~~~-|
B|-4-4h5-2~~~-----0-2-4-4/5-4h5-4h5-5/7-4h5p4h5~~~------------------------|
G|------------1h2---------------------------------------------------------|
D|------------------------------------------------------------------------|
A|------------------------------------------------------------------------|
E|------------------------------------------------------------------------|

Interlude: (Same as Intro)
-========================-

Finish with the Chorus looped
-============================-

Lyrics:
-=====-
Verse-1:
-======-
It's been so long since you've gone away 
And I know things will never be the same 
I break it all down so it will show to me clear 
But all the while I'm wishing you were here 

Verse-2:
-======-
In my dreams I can see and feel your face 
But next to me sits an empty space 
Sometimes this life doesn't make any sense to me 
I need some time to heal and some space to breathe 

Chorus:
-=====-
I'm breathing you in and I'm breathing you out 

Verse-3:
-======-
As I lay on the floor and I wonder why 
The question lingers why did you die 
I thank God for you and the memories 
But I still wish you were here with me 

Chorus:
-=====-
I'm breathing you in and I'm breathing you out 

Verse-4:
-======-
Gone away and I pray for the strength to 
Strength to carry on 
As I am breathing you in and I'm breathing you out 
I still feel you though you're gone 

Chorus:
-=====-
I'm breathing you in and I'm breathing you out
Comments