Seven - Locked Within Chords & Tabs

 

Locked Within Chords & Tabs

Seven Chords & Tabs

Version: 1 Type: Tab 0 ratings
1 star 2 stars 3 stars 4 stars 5 stars
comments

Locked Within Tab

Seven
Locked Within

Chief @ chief_mac@hotmailc.om

This is one of the best rock songs I've heard in a while.  I haven't got 
the solo down yet. The group has sort of a Creed type sound.  They're pretty good.

This song is dropped D tuned. eBGDAD

e-----------------------------------------------------------------
B-6--6-----9-9-9---4--4-4-4-4-4-4-4-3--6--6-----9-9-9---3--3-3----
G-5--5-----8-8-8---3--3-3-3-3-3-3-3-2--5--5-----8-8-8---4--4-4----
D-3--3-----6-6-6---1--1-1-1-1-1-1-1-0--3--3-----6-6-6---1--1-1----
A-3--3-3-3-6-6-6-0-1--1-1-1-1-1-1-1-0--3--3-3-3-6-6-6-0-1--1-1----
D-3--3-3-3-6-6-6-0-1--1-1-1-1-1-1-1-0--3--3-3-3-6-6-6-0-1--1-1----
[ Tab from: http://www.guitartabs.cc/tabs/s/seven/locked_within_tab.html ]
e------------------------------------
B-4-4-4-4-4-7------------------------
G-3-3-3-3-3-6-----------REPEAT-------
D-1-1-1-1-1-4-------------4X---------
A-1-1-1-1-1-4------------------------
D-1-1-1-1-1-4------------------------

Chorus
e-----------------------?
B------8-8-------6-6----?
G-5-5--5-5--7-7--3-3----?
D-5-5--5-5--7-7--3-3----?
A-3-3--5-5--5-5--3-3----?
D------5-5-------3-3----?

Repeat Verse 4x

Chorus (Distorted) 2x

Then...
e------------------------------------
B------------------------------------
G------------------------------------
D--------Palm Muted------------------  Repeat 5x
A------------------------------------
D-3-3-3-3-6-6-6-6-1-1-1-1-3-3-3-3----

Solo (I'll get it later)

e------------------------------------
B------------------------------------
G------------------------------------
D-3-3-3-3-6-6-6-6-1-1-1-1-3-3-3-3----
A-3-3-3-3-6-6-6-6-1-1-1-1-3-3-3-3----
D-3-3-3-3-6-6-6-6-1-1-1-1-3-3-3-3----

Repeat 3x

Repeat Chorus 2x

End on
e------
B--2---
G--0---
D--0---
A--0---
D--0---
Comments