Session Road - Suntok Sa Buwan Chords & Tabs

 

Suntok Sa Buwan Chords & Tabs

Session Road Chords & Tabs

Version: 8 Type: Tab 0 ratings
1 star 2 stars 3 stars 4 stars 5 stars
comments

Suntok Sa Buwan Tab

   
-------------------------------------------------------------------------------
			     SUNTOK SA BUWAN - Session Road
-------------------------------------------------------------------------------
Tabbed by: ZieG_01 
Email: ZieG_X@yahoo.com

Tuning: Standard eBGDAE

Intro: A, DM7 (2x)
    A  
e|--x--x------------x--x-----------|
B|--x--x------------x--x-----------|
G|--6--6------------6--6-----------|
D|--7--7------------7--7-----------|
A|--7--7----4-5-4---7--7----4-5-4--|
E|--5--5--5---------5--5--5--------|
    DM7
e|--2--2--2--4--2---2--2--|
B|--2--2--2--x--2---2--2--|
G|--2--2--2--x--2---2--2--|X2
D|--x--x--x--x--x---x--x--|
A|--x--x--x--x--x---x--x--|
E|--x--x--x--x--x---x--x--|

Note: Listen to the song to get the correct strumming.



Verse Chords: A, DM7
I
	  A
Di mo ba alam
		DM7
Damdamin ko'y pinagtakpan
 DM7
Makasama ka'y 
	    A
Suntok sa buwan

	   A
Di mo nga alam
		DM7
Mundo mo nga iyong tignan
 DM7
Kung ganyan
		Bm
Walang pupuntahan

Refrain:
	      D-Bm
Oh di ko to gusto
		D
Pero wag kang lalayo...

Chorus:
Itanong mo sa akin
Tatanungin ko rin
Kung ika'y aamin
Lahat ay gagawin

Chorus Tab: A, F#m, E, D
e|---------------|		e|---------12------|
B|--/9-10--12--9-|		B|--/9-10------12--|				
G|---------------|		G|-----------------|	
D|---------------| = (x3)	D|-----------------|	
A|---------------|		A|-----------------|
E|---------------|		E|-----------------|

II (Do Intro then Verse I Chords)
Di mo na papansin
Kailangan mo akong dinggin
Di habang buhay
Ika'y aantayin
Ito'y aking hiling
Sana naman tatanggapin
Na'ng puso ko'y
Di nabibitin

Repeat Chorus
Solo: A, C#, D, Dm
[ Tab from: http://www.guitartabs.cc/tabs/s/session_road/suntok_sa_buwan_tab_ver_8.html ]
e|--------------------------------------------------|
B|--------------------------------------------------|
G|----------/6-6h7p6--------9-----7-6h7p6-----------|
D|----------------------------/7----------7-7/9\7---|
A|--7-7-7h9----------7-7/9--------------------------|
E|--------------------------------------------------|

e|------------------------------|
B|------------------------------|
G|--------------6-6-7-7-7/9-----|
D|--7-7-7-7-9-9-----------------|
A|------------------------------|
E|------------------------------|

e|-----------------------------------------------------|
B|-----------------------------------------------------|
G|----------/6-6h7p6--------9-----7-6h7p6---7/9\7-6----|
D|----------------------------/7----------7---------7--|
A|--7-7-7h9----------7-7/9-----------------------------|
E|-----------------------------------------------------|

e|-----------------------------------------------------|
B|--10-10-10-9h10-7-9-7--------------------------------|
G|----------------------9-11-9h11-9-11-9-6-7~----------|
D|-----------------------------------------------------|
A|-----------------------------------------------------|
E|-----------------------------------------------------|

-Bm	   D-Bm
Di ko to gusto
		  D-D
Pero wag kang lalayo

e|---------------------------------------------|
B|----------------------7-10-9-----------------|
G|----------------6-7-9------------------------|
D|--------6-6h7-9------------------------------|
A|--7-7h9--------------------------------------|
E|---------------------------------------------|

(Do Chorus Chords)
Itanong mo sa akin
Tatanungin ko rin
Kung ika'y aamin
Ohh ohh ohh
Kung ika'y aamin
Ohh ohh ohh
Lahat ay gagawin

Legend:
/  slide up
| \  slide down
| h  hammer-on
| p  pull-off
| ~  vibrato
| +  harmonic
| x  Mute note

Note:
This song was completely ear transcribed. 
Any correction on the solo part is absolutely welcome. You can e-mail me at the above
address. Paki rate naman pls....

===============================================================================
Comments