Session Road - Suntok Sa Buwan Chords & Tabs

 

Suntok Sa Buwan Chords & Tabs

Session Road Chords & Tabs

Version: 6 Type: Tab 0 ratings
1 star 2 stars 3 stars 4 stars 5 stars
comments

Suntok Sa Buwan Tab

Session Road
Suntok Sa Buwan (solo)
Tab by: Wion12

e]-------------------------------------------------------------12--12---12--|
b]--12h-14-14-14-14-14-14-14-14-9-9-9-9-10-10-10-10-12-12-12-10---10--10----|
g]--------------------------------------------------------------------------|
D]--------------------------------------------------------------------------|
A]--------------------------------------------------------------------------|
E]--------------------------------------------------------------------------|


e]--------------------------------------------------------------------------|
b]--------------------------------------12h14-14-14-14-14-14-14-14-14-------|
g]--7--999-9/11-1111-11/14-1414141414---------------------------------------|
D]--x--xxx-x x--x-x--x--x--x-x-x-x-x----------------------------------------|
A]--5--777-7/9--9-9--9/-12-1212121212---------------------------------------|
E]--------------------------------------------------------------------------|

[ Tab from: http://www.guitartabs.cc/tabs/s/session_road/suntok_sa_buwan_tab_ver_6.html ]
e]---------------------------------12--12--12-------------------------------|
b]--9-9-9-9-10-10-10-10-12-12-12-10--10--10---10-10p9p7p5s7p5p3p2s3---------|
g]--------------------------------------------------------------------------|
D]--------------------------------------------------------------------------|
A]--------------------------------------------------------------------------|
E]--------------------------------------------------------------------------|


e]------7------5----------5-------------------------------------------------]
b]----5----------7--3---3---------------------------------------------------]
g]--4------7--------4-------777777-777--(77-66-444-222-000)-2x--------------]
D]---------7-7------4-4-----777777-777--------------------------------------]
A]---------5--------2-------555555-555--------------------------------------]
E]--------------------------Pm....------------------------------------------]

tnx!!
helo sa Angel ko!!! i love you so much!!! = )
helo sa kbanda ko!!! john,ichan,rex,yancy at si harold..
=)
Comments