Session Road - Suntok Sa Buwan Chords & Tabs

 

Suntok Sa Buwan Chords & Tabs

Session Road Chords & Tabs

Version: 3 Type: Tab 0 ratings
1 star 2 stars 3 stars 4 stars 5 stars
comments

Suntok Sa Buwan Tab

   
Suntok sa Buwan
Session Road

Tabbed by: Alexis "Chito" Lagante

Tuning EADGBe

Intro:

strumming pattern not shown

     A            A             D?       D        D?       D
e|-0-0-0--------0-0-0--------2-2-2-2--2-2-2-2--2-2-2-2--2-2-2-2-| 
B|-2-2-2--------2-2-2--------2-2-2-2--3-3-3-3--2-2-2-2--3-3-3-3-| 
G|-2-2-2--------2-2-2--------2-2-2-2--2-2-2-2--2-2-2-2--2-2-2-2-| 2X   
D|-2-2-2--------2-2-2--------0-0-0-0--0-0-0-0--0-0-0-0--0-0-0-0-|    
A|-0-0-0-0h2h4--0-0-0-0h2h4-------------------------------------|    
E|--------------------------------------------------------------|

Verse:
      A  PM          A            D?       D        D?       D
e|-0-0-0-0-----0-0-0-0-0-0-0-0--2-2-2-2--2-2-2-2--2-2-2-2--2-2-2-2-|
B|-2-2-2-2-----2-2-2-2-2-2-2-2--2-2-2-2--3-3-3-3--2-2-2-2--3-3-3-3-|
G|-2-2-2-2-----2-2-2-2-2-2-2-2--2-2-2-2--2-2-2-2--2-2-2-2--2-2-2-2-| 3X
D|-2-2-2-2-----2-2-2-2-2-2-2-2--0-0-0-0--0-0-0-0--0-0-0-0--0-0-0-0-|
A|-0-0-0-0-----0-0-0-0-2-2-2-2-------------------------------------| 
E|-----------------------------------------------------------------|
           Hindi mo ba alam ...

Refrain:
   Bm     D      Bm     D
e|-2-2----2-2----2-2----2-2-|
B|-3-3----3-3----3-3----3-3-|
G|-4-4----2-2----4-4----2-2-|
D|-4-4----0-0----4-4----0-0-|
A|-2-2-----------2-2--------|
E|--------------------------|
      Hindi ko to gusto .....


Chorus:

A-F#m-E-D (2X)

Repeat Intro (1X)

Verse

Refrain

Chorus
[ Tab from: http://www.guitartabs.cc/tabs/s/session_road/suntok_sa_buwan_tab_ver_3.html ]
Adlib:
 ___
  |
  |
 _|_ part
 
e|----------------------------------------------------12----12----12----|
B|-14-14-14-14-14-14-14-14-9-9-9-10-10-10-12-12-10-10----10----10----10-|
G|--x--x--x--x--x--x--x--x-x-x-x--x--x--x--x--x--x--x-------------------|
D|-11-11-11-11-11-11-11-11-6-6-6--7--7--7--9--9--7--7-------------------|
A|----------------------------------------------------------------------|
E|----------------------------------------------------------------------|

 ____
  ||
  ||
 _||_ part

e|------------------------|
B|------------------------|
G|-7s9-9-9s11-11-11s13s14-|
D|-x-x-x-x--x--x--x--x--x-|
A|-5s7-7-7s-9--9--9s11s12-|
E|------------------------|



Repeat I part

e|------------------|
B|-10-9-7-5-7-5-3-2-|
G|------------------|
D|------------------|
A|------------------|
E|------------------|

Repeat 

e|-------------|
B|-------------|
G|-7-6-4-2-2-2-|
D|-x-x-x-x-x-x-| 2X
A|-5-4-2-0-0-0-|
E|-------------|

Repeat Chorus

Lyrics:

Verse I

Hindi mo ba alam
Damdamin ko'y pinagtakpan
Makasama ka'y suntok sa buwan
Di mo nga alam
Mundo mo nga'y iyong tignan
Kung ganyan, walang pupuntahan

Refrain

Hindi ko to' gusto
Pero wag kang lalayo

Chorus 

Itanong mo sa akin
At tatanungin ko rin
Kung ika'y aamin
Lahat ay gagawin
2X

Verse II

Di mo napapansin
Kailangan mo akong dinggin
Di habang buhay ika'y aantayin
Ito'y aking hiling
At sana naman ay tanggapin
Nang puso ko'y di nabibitin



Hi sa mga taga BUCEILS High School Department especially to
II-Narra 2004-2005 and to the Green Dept. and to Charisa Balleras,
ang pinakamagandang babae sa skul. Inaalay ko to sayo... hahaha!!!!

Any comments or suggestions
email me: poorman_007@yahoo.com

Visit my website
http://www.greatestman.tk
Don't forget to sign my guestbook
Comments