Session Road - Suntok Sa Buwan Chords & Tabs

 

Suntok Sa Buwan Chords & Tabs

Session Road Chords & Tabs

Version: 2 Type: Tab 0 ratings
1 star 2 stars 3 stars 4 stars 5 stars
comments

Suntok Sa Buwan Tab

   
Intor: 2x

E-0-0----------------|
B-2-2----------------|
G-2-2----------------|
D-2-2----------------|
A-0-0-------4-5-4~---|
E-0-0---0h5----------|
 2x to after ne2

E-0-0-5-5------------|
B-7-7-7-7------------|
G-6-6-6-6------------|
D-7-7-7-7------------|
A-5-5-5-5------------|
E-x-x-x-x------------|
 2x dn yan!..

verse: 2x

E-0-0-x-x------------|
B-2-2-x-x------------|
G-2-2-x-x------------|
D-2-2-x-x------------|
A-0-0-x-x------------|
E-0-0-x-x------------|
 Di mo ba alam

E-0-0-0-0--1-1-1-1---|
B-2-2-2-2--1-1-1-1---|
G-2-2-2-2--1-1-1-1---|
D-2-2-2-2--0-0-0-0---|
A-0-0-0-0--0-0-0-0---|
E-0-0-0-0--0-0-0-0---|

Refrain: 2x
[ Tab from: http://www.guitartabs.cc/tabs/s/session_road/suntok_sa_buwan_tab_ver_2.html ]
E---2-----2----------|
B--3-----3-----------|
G-4-----2------------|
D--------------------|
A--------------------|
E--------------------|

Chorus: 2x

E---------------------------12------|
B-9-10-12-10-9-10-12-10-9-10--10----|
G-----------------------------------|
D-----------------------------------|
A-----------------------------------|
E-----------------------------------|


Chords: Intro A,C#M7
        Verse A, DM7   
        Chorus A, F#m, E, D

tpoz ulit na lng yan.. next tym na lng ung solo dq pa tpoz eh paki rate na lng..
gs2 q nga pla batiin ung banda ko 4th element.. Siochi, Will, June, Pep, Tin tska mga
tropa q thoiz, tongz, benjo, chico, karla, em, da, bien tska sa lahat nrn ng T.U.R.F!
Comments