Session Road - Suntok Sa Buwan Chords & Tabs

 

Suntok Sa Buwan Chords & Tabs

Session Road Chords & Tabs

Version: 1 Type: Tab 0 ratings
1 star 2 stars 3 stars 4 stars 5 stars
comments

Suntok Sa Buwan Tab

   
Title: Suntok sa buwan ( Acoustic version )
Artist/band: Session road
Tabbed by: Jason Gandionco ( gandionco_jason_47@yahoo.com )
Tuning: Standard

Intro/verse
e|-5-5-5-5--------5-5-5-5-5-5---5-5-5-5-5-5---5-5-5-5-5-5--|
B|-5-5-5-5--------5-5-5-5-5-5---7-7-7-7-7-7---6-6-6-6-6-6--|
G|-6-6-6-6--------6-6-6-6-6-6---6-6-6-6-6-6---7-7-7-7-7-7--|   (2x)
D|-7-7-7-7---x-x-7-7-7-7-7-7---7-7-7-7-7-7---7-7-7-7-7-7---|
A|-7-7-7-7---x-x-7-7-7-7-7-7---5-5-5-5-5-5---5-5-5-5-5-5---|
E|-5-5-5-5---x-x-5-5-5-5-5-5---5-5-5-5-5-5---5-5-5-5-5-5---|

Verse
e|-5-5-5-5--------5-5-5-5-5-5---5-5-5-5-5-5---5-5-5-5-5-5--|
B|-5-5-5-5--------5-5-5-5-5-5---7-7-7-7-7-7---6-6-6-6-6-6--|
G|-6-6-6-6--------6-6-6-6-6-6---6-6-6-6-6-6---7-7-7-7-7-7--|
D|-7-7-7-7---x-x-7-7-7-7-7-7---7-7-7-7-7-7---7-7-7-7-7-7---|
A|-7-7-7-7---x-x-7-7-7-7-7-7---5-5-5-5-5-5---5-5-5-5-5-5---|
E|-5-5-5-5---x-x-5-5-5-5-5-5---5-5-5-5-5-5---5-5-5-5-5-5---|

Pre chorus
e|-2-2-2-2-2-2---2-2-2-2-2-2-|
e|-2-2-2-2-2-2---2-2-2-2-2-2-|
B|-3-3-3-3-3-3---3-3-3-3-3-3-|
G|-4-4-4-4-4-4---2-2-2-2-2-2-|  (2x)
D|-4-4-4-4-4-4---0-0-0-0-0-0-|
A|-2-2-2-2-2-2---0-0-0-0-0-0-|
Chorus
   A                                    D
Itanong mo sa akin tatanunngin ka rin
                    Dm
kung ika'y aamin lahat ay gagawin  (2x)

Chorus lead

e|------------7~--5--|
B|--8-10-------------|
G|--------9----------|  (2x)
D|-------------------|
A|-------------------|
E|-------------------|
Then
e|-------------12~--|
B|--8-10------------|
G|---------9--------|
D|------------------|
A|------------------|
E|------------------|


Repeat verse
Pre chorus
Chorus
[ Tab from: http://www.guitartabs.cc/tabs/s/session_road/suntok_sa_buwan_tab.html ]
Solo
e|---------------------------------------------------------------------------------------|
B|---------------------------9~----------------------------------------------------------|
G|-------------7-6--2-2h4-----------7-6--------------------------------------------------|
D|--3-3-3/5--------------------3/5-------7-7/9-7~--8-8-8-10-10-12-12-14-14-14-14h15-10~--|
A|---------------------------------------------------------------------------------------|
E|---------------------------------------------------------------------------------------|


e|-------------------------------------------------------------------------------------------------------|
B|---------------------------9~--------------------------10-10-10----------------------------------------|
G|-------------7-6--2-2h4-----------7-6---------------------------11h13P11-9-11-9-7-9-9h11p9-7-9-7-6-7~--|
D|--3-3-3/5--------------------3/5-------7-9/14-12-10-7~-------------------------------------------------|
A|-------------------------------------------------------------------------------------------------------|
E|-------------------------------------------------------------------------------------------------------|

Pre chorus
e|-2-2-2-2-2-2---2-2-2-2-2-2-|
B|-3-3-3-3-3-3---3-3-3-3-3-3-|
G|-4-4-4-4-4-4---2-2-2-2-2-2-|  (2x)
D|-4-4-4-4-4-4---0-0-0-0-0-0-|
A|-2-2-2-2-2-2---0-0-0-0-0-0-|
E|-x-x-x-x-x-x---x-x-x-x-x-x-|

e|-9-9----7-7--5-5--3-3--2-2-2-2---------|
B|-10-10--8-8--6-6--4-4--3-3-3-3---------|
G|- 9-9---7-7--5-5--3-3--2-2-2-2---------|
D|---------------------------------------|
A|---------------------------------------|
E|---------------------------------------|

e|-------------------------------------------------|
B|---------------------------------9-11-13-11------|
G|-------------------8-10-10h12--------------------|
D|-------7-8h10------------------------------------|
A|--7-9--------------------------------------------|
E|-------------------------------------------------|

Chorus
end with A
Comments