Session Road - Suntok Sa Buwan Chords & Tabs

 

Suntok Sa Buwan Chords & Tabs

Session Road Chords & Tabs

Version: 2 Type: Bass Tab 0 ratings
1 star 2 stars 3 stars 4 stars 5 stars
comments

Suntok Sa Buwan Bass Tab

song:suntok sa buwan
artist:session road
standard tuning: EADG

intro.
G|---------------------------------|
D|---------------------------------|
A|-------4h5-----------------------|(2x)continuosly
E|55-0h5---------------------------|

G|-------------------------------|
D|-------------------------------|
A|55-----------------------------|(2x)
E|----09-07-0h5------------------|

verse 1
hindi mo ba alam...(pause)
G|----------------------------------------|
D|----------------------------------------|
A|-000(pause)000--00---55-----------------|
E|-------------------------09-07-0h5------|
[ Tab from: http://www.guitartabs.cc/tabs/s/session_road/suntok_sa_buwan_btab_ver_2.html ]
verse 2
'di mo nga alam... (pause)
G|----------------------------------|
D|----------------------------------|
A|00(pause)000-000-00-55555--55555-5|
E|----------------------------------|

*refrain
G|--------------------------------------|
D|--------------------------------------|
A|22222-4-55555-22222-55555-------------|
E|--------------------------------------|

chorus
G|------------------------------------|
D|------------------------------------|
A|-------------7777--5555-------------|
E|5555-222222-------------------------|

repeat intro (once)..

verse 3
same as verse 1

verse 4
same as verse 1

3rd to the last chorus.... you've heard it im sure...here it goes

G|----------------------------------------|
D|----------------------------------------|
A|---------------7-9-10-11--5555----------|
E|55555--2-4-5-44-------------------------|

il just figure out the last part which is kinda scratchy thanx peace out hope u ejnoy
Comments