Session Road - Suntok Sa Buwan Acoustic Chords & Tabs

 

Suntok Sa Buwan Acoustic Chords & Tabs

Session Road Chords & Tabs

Version: 5 Type: Tab 0 ratings
1 star 2 stars 3 stars 4 stars 5 stars
comments

Suntok Sa Buwan Acoustic Tab

   
Song  : Suntok Sa Buwan Acoustic
Artist: Session Road
Album : Suntok Sa Buwan
Tabber: GeNoCiDe_GLiTcH 
Tuning: Standard Tuning [ E A D G B E ]

Paki rate na lang po at kung may mali, itama nyo na lng po. 
Tnx 4 ur appreciation.

Tab Legend:
 h - hammer on
 p - pull off from / hammer off
 s - legato slide

A. Intro
Gtr. I
A-DM7
      A				      DM7
e||---5-55------------5-55------------5-55-55-555-55-55-55555----||
B||o--5-55------------5-55------------7-77-77-777-77-77-77777---o||
G||---6-66------------6-66------------6-66-60-666-66-60-66666----||
D||---7-77------------7-77------------7-77-77-777-77-77-77777----||
A||o--7-77-----4h5p4--7-77-----4h5p4--5-55-55-555-55-55-55555---o||
E||---5-55-3h5--------5-55-3h5-----------------------------------||

B. Verse 1
Gtr. I
A-DM7
      A			DM7			   3x
e||---5-55-5-b-5-55-5-b-5-55-55-555-55-55-55555----||
B||o--5-55-5-r-5-55-5-r-7-77-77-777-77-77-77777---o||
G||---6-66-6-e-6-66-6-e-6-66-60-666-66-60-66666----||
D||---7-77-5-a-7-77-5-a-7-77-77-777-77-77-77777----||
A||o--7-77-7-k-7-77-7-k-5-55-55-555-55-55-55555---o||
E||---5-55-5---5-55-5------------------------------||

C. Pre-Chorus
Gtr. I
Bm-D

e||---2-22-22222-2-22-22222----||
B||o--3-33-33333-3-33-33333---o||
G||---4-44-44444-2-22-22222----||
D||---4-44-44444-0-00-00000----||
A||o--2-22-22222--------------o||
E||----------------------------||

Gtr. II
Bm-D

e||---------2--2-222--------2--2-222----||
B||o--------3--3-333--------3--3-333---o||
G||-------4----4-444------2----2-222----||
D||-----4------4-444----0------0-000----||
A||o--2--------2-222--0----------------o||
E||-------------------------------------||

D. Chorus
Gtr. I
A-F#m-E-D

e||---0-00-00000-2-22-22222--0-00-00000-2-22-22222----||
B||o--2-22-22222-2-22-22222--0-00-00000-3-33-33333---o||
G||---2-22-22222-2-22-22222--1-11-11111-2-22-22222----||
D||---2-22-22222-4-44-44444--2-22-22222-0-00-00000----||
A||o--0-00-00000-4-44-44444--2-22-22222--------------o||
E||--------------2-22-22222--0-00-00000---------------||

Gtr. II

e||-------------------||--------12-----------------------||
B||o--9-10--12--10---o||--9-10------10---9-10--12--10---o||
G||-------------------||---------------------------------||
D||-------------------||---------------------------------||
A||o-----------------o||--------------------------------o||
E||-------------------||---------------------------------||

E. Interlude
Gtr. I
A-DM7
      A				      DM7
e|---5-55------------5-55------------5-55-55-555-55-55-55555---|
B|---5-55------------5-55------------7-77-77-777-77-77-77777---|
G|---6-66------------6-66------------6-66-60-666-66-60-66666---|
D|---7-77------------7-77------------7-77-77-777-77-77-77777---|
A|---7-77-----4h5p4--7-77-----4h5p4--5-55-55-555-55-55-55555---|
E|---5-55-3h5--------5-55-3h5----------------------------------|
[ Tab from: http://www.guitartabs.cc/tabs/s/session_road/suntok_sa_buwan_acoustic_tab_ver_5.html ]
F. Verse 2
Gtr. I
A-DM7
      A			DM7			   3x
e||---5-55-5-b-5-55-5-b-5-55-55-555-55-55-55555----||
B||o--5-55-5-r-5-55-5-r-7-77-77-777-77-77-77777---o||
G||---6-66-6-e-6-66-6-e-6-66-60-666-66-60-66666----||
D||---7-77-5-a-7-77-5-a-7-77-77-777-77-77-77777----||
A||o--7-77-7-k-7-77-7-k-5-55-55-555-55-55-55555---o||
E||---5-55-5---5-55-5------------------------------||

G. Repeat Pre-Chorus

H. Repeat Chorus

I. Guitar Solo / Instrumental
Gtr. I
A-C#-DM7

e||---5-55-55555-4-44-44444-5-55-55555-5-55-55555----||
B||o--5-55-55555-6-66-66666-7-77-77777-7-77-77777---o||
G||---6-66-66666-6-66-66666-6-66-66666-6-66-66666----||
D||---7-77-77777-6-66-66666-7-77-77777-7-77-77777----||
A||o--7-77-77777-4-44-44444-5-55-55555-5-55-55555---o||
E||---5-55-55555-------------------------------------||

Gtr. II

e|----------------------4--|------------------------|
B|----------3-2h3p2--------|------3-2h3p2-----------|
G|------------------2-4----|---------------2-2s4s2--|
D|--2-2-2s4----------------|--2s4-------------------|
A|-------------------------|------------------------|
E|-------------------------|------------------------|

e|---------------------------|
B|---------2-2-3-3-4-4-4s6---|
G|--4-4-4--------------------|
D|---------------------------|
A|---------------------------|
E|---------------------------|

e|----------------------4--|-----------------------------|
B|----------3-2h3p2--------|------3-2h3p2----3s5s3-2-----|
G|------------------2-4----|---------------2---------2---|
D|--2-2-2s4----------------|--2s4------------------------|
A|-------------------------|-----------------------------|
E|-------------------------|-----------------------------|

e|--5-5-5-4h5p4-3-4-2-1-2-2h3p2---------------|
B|------------------------------3-3s5-3p2h3---|
G|--------------------------------------------|
D|--------------------------------------------|
A|--------------------------------------------|
E|--------------------------------------------|

J. Pre-Chorus
Gtr. I
Bm-D
			       3x
e||---2-22-22222-2-22-22222----||
B||o--3-33-33333-3-33-33333---o||
G||---4-44-44444-2-22-22222----||
D||---4-44-44444-0-00-00000----||
A||o--2-22-22222--------------o||
E||----------------------------||

Gtr. II

e||---10-10-9-9-7-5-2-3----||
B||o----------------------o||
G||------------------------||
D||------------------------||
A||o----------------------o||
E||------------------------||

Gtr. III

e|----------------5h7-9-7-5---|
B|------------5h7-------------|
G|--------5h7-----------------|
D|----5h7---------------------|
A|--7-------------------------|
E|----------------------------|

K. Repeat Chorus

J. Coda
Gtr. I
A-F#m-E-D
						  ^
e|--0-00-00000-2-22-22222--0-00-00000-2-22-22222--)0---|
B|--2-22-22222-2-22-22222--0-00-00000-3-33-33333--(2---|
G|--2-22-22222-2-22-22222--1-11-11111-2-22-22222--)2---|
D|--2-22-22222-4-44-44444--2-22-22222-0-00-00000--(2---|
A|--0-00-00000-4-44-44444--2-22-22222-------------)0---|
E|-------------2-22-22222--0-00-00000-------------(----|
						    -Arpeggiate Chord

Gtr. II

e|----------------------------|
B|--10-10-10-10-10-10-10-10---|
G|--9--9--9--9--9--9--9--9----|
D|----------------------------|
A|----------------------------|
E|----------------------------|

e|--12-12-12-12-12-12-12-12---|
B|--10-10-10-10-10-10-10-10---|
G|----------------------------|
D|----------------------------|
A|----------------------------|
E|----------------------------|

e|--12-12-12-12--10-12-10-9-8---|
B|--10-10-10-10-----------------|
G|------------------------------|
D|------------------------------|
A|------------------------------|
E|------------------------------|

e|----------12-----------|
B|--10--12------12--10---|
G|-----------------------|
D|-----------------------|
A|-----------------------|
E|-----------------------|

End
Comments