Session Road - Suntok Sa Buwan Acoustic Chords & Tabs

 

Suntok Sa Buwan Acoustic Chords & Tabs

Session Road Chords & Tabs

Version: 3 Type: Tab 0 ratings
1 star 2 stars 3 stars 4 stars 5 stars
comments

Suntok Sa Buwan Acoustic Tab

   
-------------------------------------------------------------------------------
			     Suntok sa buwan - Session road
-------------------------------------------------------------------------------
Tabbed by: Jerome Vincent Digueno
Email: Jeromevincentd@yahoo.com

       (riff)
e|------------------------|
B|------------------------|
G|------------------------|
D|------------------------|
A|------------4h5--5------|
E|----0h5-----------------|

Intro:
   A (riff) A (riff) DM7-D DM7-D    (2x)

Pre-Chorus:
   Bm  D   (2x)
Chorus:
(guitar 1)
   A  F#m  E  D
(guitar 2)


e|------------------------|
B|--9--10--12--10---------|
G|------------------------|
D|------------------------|
A|------------------------|
E|------------------------|

e|------------------------|
B|--9--10--12--10---------|
G|------------------------|
D|------------------------|
A|------------------------|
E|------------------------|

e|---------12-------------|
B|--9--10------10---------|
G|------------------------|
D|------------------------|
A|------------------------|
E|------------------------|

e|------------------------|
B|--9--10--12--10---------|
G|------------------------|
D|------------------------|
A|------------------------|
E|------------------------|              repeat it twice

then do intro ones
then verse
then pre-chorus
then chorus

then
(guitar 1)
  A  A  DM7-D  DM7-D  (2x)

(guitar 2)
e|-------------------------------------------------------------------------|
B|--------------------------------9----------------------------------------|
G|---------------7--6-----------------------------7--6---------------------|
D|-----7-7-7h9-----------7---9-----------7-7h9-------------7--9--7---------|
A|-------------------------------------------------------------------------|
E|-------------------------------------------------------------------------|
[ Tab from: http://www.guitartabs.cc/tabs/s/session_road/suntok_sa_buwan_acoustic_tab_ver_3.html ]
e|-------------------------------------------------------------------------|
B|-------------------------------------------------------------------------|
G|---------------------------7-7---9---------------------------------------|
D|----7-7-7--9-9--11-11----------------------------------------------------|
A|-------------------------------------------------------------------------|
E|-------------------------------------------------------------------------|

e|-------------------------------------------------------------------------|
B|--------------------------------9----------------------------------------|
G|---------------7--6-----------------------------7--6--------7/9--7-------|
D|-----7-7-7h9-----------7---9-----------7-7h9-------------7------------7--|
A|-------------------------------------------------------------------------|
E|-------------------------------------------------------------------------|

e|-------------------------------------------------------------------------|
B|--10-10-10-9-7-9-7-5-7-5-3-5-3-2-3---------------------------------------|
G|-------------------------------------------------------------------------|
D|-------------------------------------------------------------------------|
A|-------------------------------------------------------------------------|
E|-------------------------------------------------------------------------|

then do pre chorus
and after the end of pre-chorus do D chord twice then

e|----------------5h7------------9-----------------------------------------|
B|------------5h7----------------------12----------------------------------|
G|--------5h7--------------------------------------------------------------|
D|-----5h7-----------------------------------------------------------------|
A|--5h7--------------------------------------------------------------------|
E|-------------------------------------------------------------------------|

tapos  biglaan pasok agad lead sa chorus
 guitar 1 do chorus chord  (2x)
tapos yong chord tataas di ko lang makuha eh kaya nyo na yan


finish...............




itong kantang ito ay inihahandog ko Kay Mela..............
Comments