Session Road - Suntok Sa Buwan Acoustic Chords & Tabs

 

Suntok Sa Buwan Acoustic Chords & Tabs

Session Road Chords & Tabs

Version: 2 Type: Tab 0 ratings
1 star 2 stars 3 stars 4 stars 5 stars
comments

Suntok Sa Buwan Acoustic Tab

   
Tabbed by: maurice_rlm@yahoo.com
Suntok sa Buwan (acoustic version)
Sessionroad

Paki copy and paste na lang sa word para mas maayos. Font: courier new. Font size: 9


Intro: AAM7DM7

Play this after A and AM7

e------------------------------|
B------------------------------|
G------------------------------|
D------------------------------|
A-------------4-5-4------------|
E---------3/5------------------|

Verse: same as intro
Refrain: BmD (2x)
Chorus: AF#mED (pede rin D9)

Adlib:
e-------------------------------------------------------|
B--------------------------9----------------------------|
G-------------7-6h7p6-------------7-6h7p6---------------|
D---------------------7-7/9---------------7-7/9\7-------|
A-----7-7-7/9-----------------5/7-----------------------|
E-------------------------------------------------------|
[ Tab from: http://www.guitartabs.cc/tabs/s/session_road/suntok_sa_buwan_acoustic_tab_ver_2.html ]
e-----------------------------|
B-----------------------------|
G-----------6-6-7-7-9-9-9/11--|
D-----9-9-9-------------------|
A-----------------------------|
E-----------------------------|

e----------------------------------------------------------|
B--------------------------9-------------------------------|
G-------------7-6h7p6-------------7-6h7p6---7/9\7-6--------|
D---------------------7-7/9---------------7---------7------|
A-----7-7-7/9-----------------5/7--------------------------|
E----------------------------------------------------------|

e-------------------------------------------------------------------------------|
B-----10-10-10-9h10p9-7-9-7-5-7-5h7p5-------------------------------------------|
G-------------------------------------7-7/9-7-6-7-------------------------------|
D-------------------------------------------------------------------------------|
A-------------------------------------------------------------------------------|
E-------------------------------------------------------------------------------|
Comments