Session Road - Leaving You Chords & Tabs

 

Leaving You Chords & Tabs

Session Road Chords & Tabs

Version: 8 Type: Tab 0 ratings
1 star 2 stars 3 stars 4 stars 5 stars
comments

Leaving You Tab

   
Song: Leavin you
Artist: Session Road
Album: Suntok sa Buwan 
Tabbed: June 7, 2005
Transcribe by: Erwin Serrano Quezon City/Pangasinan 
                 (winserrano@yahoo.com)

hey guys try nyu to!! medyu magulo pero tama to! mas maganda kng may record
kau ng kanta, masusundan nyu agad!! sana magustuhan nyu po! 
vote po!! tnnnxxx



intro: E F#m E/G#m--
      
E|---4-4-4-4-4-4-4-4--5-5-5-5-5-5-5-5--7-7-7-7-7-7-7-7-7-7-7-7-7-7-7-7-|
B|---5-5-5-5-5-5-5-5--5-5-5-5-5-5-5-5--5-5-5-5-5-5-5-5-5-5-5-5-5-5-5-5-|
G|---4-4-4-4-4-4-4-4--4-4-4-4-4-4-4-4--4-4-4-4-4-4-4-4-4-4-4-4-4-4-4-4-|
D|---2-2-2-2-2-2-2-2--4-4-4-4-4-4-4-4--6-6-6-6-6-6-6-6-6-6-6-6-6-6-6-6-|
A|---------------------------------------------------------------------|
E|---------------------------------------------------------------------|


     Epause                             Apause
E|---4-----------------------------5---------------------------------|
B|---5-----------------------------5----------------------------------|
G|---4-----------------------------6----------------------------------|
D|---2----------------------------------------------------------------|
A|--------------------------------------------------------------------|
E|--------------------------------------------------------------------|
  I'm watching me make a fool of myself
   Silently speaking my wish to be free
     Epause                             Apause
E|---4-----------------------------5----------------------------------|
B|---5-----------------------------5----------------------------------|
G|---4-----------------------------6----------------------------------|
D|---2----------------------------------------------------------------|
A|--------------------------------------------------------------------|
E|--------------------------------------------------------------------|
  Turning my world           inside out
  Spin my emotions building my doubt
     E                             A
E|---4-4hld-----------------------------4-4hld---5-5-5-5--------------|
B|---5-5hld--4x-------------------------5-5hld---5-5-5-5---2X---------|
G|---4-4hld-----------------------------6-6hld---6-6-6-6--------------|
D|---2----------------------------------------------------------------|
A|--------------------------------------------------------------------|
E|--------------------------------------------------------------------|
  I fed on this strangeness plain and  true
 But there was nothing beneath it i knew
     E                             A
E|---4-4hld------------------------4-4hld---5-5-5-5-------------------|
B|---5-5hld--4x--------------------5-5hld---5-5-5-5---2X--------------|
G|---4-4hld------------------------6-6hld---6-6-6-6-------------------|
D|---2----------------------------------------------------------------|
A|--------------------------------------------------------------------|
E|--------------------------------------------------------------------|
   I see myself falling from       grace
  My love fading without a trace

[ Tab from: http://www.guitartabs.cc/tabs/s/session_road/leaving_you_tab_ver_8.html ]
CHORUS:
E               F#m              E/G#m
  I'm tired of waiting here for you
        
  Can't waste my time, i'm leaving you (2x)
     E              F#m                   E/G#m
E|--------------------------------------------------------------------|
B|---9---------------10--------------------12-------------------------|
G|---9--(8x)------------9--(8X)---------------9---(15X)---------------|
D|---6----------------7---------------------9-------------------------|
A|--------------------------------------------------------------------|
E|--------------------------------------------------------------------                      
  I'm tired of waiting here, waiting here

    E              F#m                   E/G#m
E|--------------------------------------------------------------------|
B|---9---------------10--------------------12-------------------------|
G|---9--(8x)------------9--(8X)---------------9---(15X)---------------|
D|---6----------------7---------------------9-------------------------|
A|--------------------------------------------------------------------|
E|--------------------------------------------------------------------                            
  For you, you, you, you

repeat intro:


     E                             A
E|---4-4hld------------------------4-4hld---5-5-5-5-------------------|
B|---5-5hld--4x--------------------5-5hld---5-5-5-5---2X--------------|
G|---4-4hld------------------------6-6hld---6-6-6-6-------------------|
D|---2----------------------------------------------------------------|
A|--------------------------------------------------------------------|
E|--------------------------------------------------------------------|
  I'm watching me make a fool of myself
  Silently speaking my wish to be free
     E                             A
E|---4-4hld------------------------4-4hld---5-5-5-5-------------------|
B|---5-5hld--4x--------------------5-5hld---5-5-5-5---2X--------------|
G|---4-4hld------------------------6-6hld---6-6-6-6-------------------|
D|---2----------------------------------------------------------------|
A|--------------------------------------------------------------------|
E|--------------------------------------------------------------------|
  Turning my world inside out
  Spin my emotions building my doubt

  E                               A         
  And now that you've taken the world out of me
            
  I'm left with my body hanging free
   E                         A
  As lovers come and comfort me
             
  I'm still left with my misery

Repeat chorus:         

Adlib:
                                
E|-------------------------------------------------------9------------|
B|-----9h10/9------9-10-10\12-10-9----9\10/9-------9-10----12-10-9----|
G|---9--------9-11------------------9---------9-11--------------------|
D|--------------------------------------------------------------------|
A|--------------------------------------------------------------------|
E|--------------------------------------------------------------------|
                                
E|-----------------9-12----------------9-12-----------------9-12------|
B|-------9-10-9--------------9-10-9---------------9-10-9--------------|
G|--9-11--------11------9-11--------11-------9-11--------11-----------|
D|--------------------------------------------------------------------|
A|--------------------------------------------------------------------|
E|--------------------------------------------------------------------|
                                 
E|-----------------9-12-11--------------------------------------------|
B|-------9-10-9-------------------------------------------------------|
G|--9-11--------11----------------------------------------------------|
D|--------------------------------------------------------------------|
A|--------------------------------------------------------------------|
E|--------------------------------------------------------------------|

(drum beat only)
  I'm tired of waiting here for you
  Can't waste my time, i'm leaving you
  I'm tired of waiting here for you
  Can't waste my time, i'm leaving you 


repeat chorus then fade!!


For your comments, you can email at "winserrano@yahoo.com" or send me a message sa
friendster ko. or u can also mek ur call or txt (09223006427)
vote plz!!! tnxx
Comments