Session Road - Leaving You Chords & Tabs

 

Leaving You Chords & Tabs

Session Road Chords & Tabs

Version: 2 Type: Tab 0 ratings
1 star 2 stars 3 stars 4 stars 5 stars
comments

Leaving You Tab

Leaving you (solo)
Session Road
tab by: Wion12

Helo sa Tropang AMA!!!
tama ito, basta pakinggan lang ninyo..
kung may mali just email me:wioncarlo@yahoo.com

e[--------------------------------------------------------------------------|
b[-------------------------------------------------------12s14p12-----------|
g[---------13-14-13b----13-14h16p14-13----13-14-13----13----------13b-------|
D[--12s14b-----------14----------------14----------14-----------------------|
A[--------------------------------------------------------------------------|
E[--------------------------------------------------------------------------|

[ Tab from: http://www.guitartabs.cc/tabs/s/session_road/leaving_you_tab_ver_2.html ]
e[---------------------------------------------------------------------------|
b[--------------------14-17-------------------14-17--------------------14-17-|
g[--------13-14-13----------------13-14-13-----------------13-14-13----------|
D[--14-16----------16-------14-16----------16--------14-16----------16-------|
A[---------------------------------------------------------------------------|
E[---------------------------------------------------------------------------|


e[--------------------------------------------------------------------------|
b[--------------------14-17-16----------------------------------------------|
g[--------13-14-13----------------------------------------------------------|
D[--14-16----------16-------------------------------------------------------|
A[--------------------------------------------------------------------------|
E[--------------------------------------------------------------------------|

sna, tma para sa inyo ..=)
email nalng..
pki rate po .. pls.. hehe
Salamat!!!
Comments