Session Road - Eager Angels Chords & Tabs

 

Eager Angels Chords & Tabs

Session Road Chords & Tabs

Version: 1 Type: Tab 0 ratings
1 star 2 stars 3 stars 4 stars 5 stars
comments

Eager Angels Tab

   
 Title: Eager Angels (intro)
 Artist: SessiOn Road
 Album: Suntok sa Buwan
 Track No. 1
 Song Length: 3:57
 Transcribed by: Allan John G. Amisola 
 E-mail add: kogure_18spider@yahoo.com
 Date/Time: Friday, September 16, 2005 - 6:42 pm
 

        Nxt tym gumawa kayo ng tab na tama ha..yung malapit-lapit sa katotohanan!!
            Gets mo???!!!@!@#$%^&* (array!)


 G-D-Em-C
 G-D-Em-C

 e|--------------------------------------------------------------------|
 B|--------------------------------------------------------------------|
 G|--------------------------------------------------------------------|
 D|----5-5-5-/7-7--5-5-5-5-5--5/10-9(9--9--9-9-9-9--9-9)--------------|
 A|--------------------------------------------------------------------|
 E|--------------------------------------------------------------------|

 e|--------------------------------------------------------------------|
 B|--------------------------------------------------------------------|
 G|--------------------------------------------------------------------|
 D|----5-5-5-/7-7--5-5-5-5---------------------------------------------|
 A|-------------------------5--5--7--7(7--7--7-7-7-7--7-7)------------|
 E|--------------------------------------------------------------------|
[ Tab from: http://www.guitartabs.cc/tabs/s/session_road/eager_angels_tab.html ]
 e|--------------------------------------------------------------------|
 B|--------------------------------------------------------------------|
 G|--------------------------------------------------------------------|
 D|----5-5-5-/7-7--5-5-5-5-5--5/10-9(9--9--9-9-9-9--9-9)--------------|
 A|--------------------------------------------------------------------|
 E|--------------------------------------------------------------------|

 e|--------------------------------------------------------------------|
 B|--------------------------------------------------------------------|
 G|--------------------------------------------------------------------|
 D|----5-5-5-/7-7--5-5-5-5---------------------------------------------|
 A|-------------------------5--5--7--7--------------------------------|
 E|--------------------------------------------------------------------|


       All Rights Reserved
           Copyright 2005
            All Tabs made by Allan John G. Amisola 
               Law prohibits all public performances and illegal disclaimers of 
                   this tab and has a specific punishment.

  #----------------------------------PLEASE NOTE---------------------------------#
  #This file is the author's own work and represents their interpretation of the #
  #song. You may only use this file for private study, scholarship, or research. #
  #------------------------------------------------------------------------------#
Comments